  0
SECTION
  2
HEADER
  9
$ACADVER
  1
AC1015
  9
$ACADMAINTVER
 70
     6
  9
$DWGCODEPAGE
  3
ANSI_1252
  9
$INSBASE
 10
0.0
 20
0.0
 30
0.0
  9
$EXTMIN
 10
29.674522857965
 20
27.79189436348598
 30
0.0
  9
$EXTMAX
 10
439.674522857965
 20
313.791894363486
 30
0.0
  9
$LIMMIN
 10
0.0
 20
0.0
  9
$LIMMAX
 10
12.0
 20
9.0
  9
$ORTHOMODE
 70
     0
  9
$REGENMODE
 70
     1
  9
$FILLMODE
 70
     1
  9
$QTEXTMODE
 70
     0
  9
$MIRRTEXT
 70
     1
  9
$LTSCALE
 40
1.0
  9
$ATTMODE
 70
     1
  9
$TEXTSIZE
 40
0.2
  9
$TRACEWID
 40
0.05
  9
$TEXTSTYLE
  7
Standard
  9
$CLAYER
  8
0
  9
$CELTYPE
  6
ByLayer
  9
$CECOLOR
 62
   256
  9
$CELTSCALE
 40
1.0
  9
$DISPSILH
 70
     0
  9
$DIMSCALE
 40
1.0
  9
$DIMASZ
 40
0.18
  9
$DIMEXO
 40
0.0625
  9
$DIMDLI
 40
0.38
  9
$DIMRND
 40
0.0
  9
$DIMDLE
 40
0.0
  9
$DIMEXE
 40
0.18
  9
$DIMTP
 40
0.0
  9
$DIMTM
 40
0.0
  9
$DIMTXT
 40
0.18
  9
$DIMCEN
 40
0.09
  9
$DIMTSZ
 40
0.0
  9
$DIMTOL
 70
     0
  9
$DIMLIM
 70
     0
  9
$DIMTIH
 70
     1
  9
$DIMTOH
 70
     1
  9
$DIMSE1
 70
     0
  9
$DIMSE2
 70
     0
  9
$DIMTAD
 70
     0
  9
$DIMZIN
 70
     0
  9
$DIMBLK
  1

  9
$DIMASO
 70
     1
  9
$DIMSHO
 70
     1
  9
$DIMPOST
  1

  9
$DIMAPOST
  1

  9
$DIMALT
 70
     0
  9
$DIMALTD
 70
     2
  9
$DIMALTF
 40
25.4
  9
$DIMLFAC
 40
1.0
  9
$DIMTOFL
 70
     0
  9
$DIMTVP
 40
0.0
  9
$DIMTIX
 70
     0
  9
$DIMSOXD
 70
     0
  9
$DIMSAH
 70
     0
  9
$DIMBLK1
  1

  9
$DIMBLK2
  1

  9
$DIMSTYLE
  2
Standard
  9
$DIMCLRD
 70
     0
  9
$DIMCLRE
 70
     0
  9
$DIMCLRT
 70
     0
  9
$DIMTFAC
 40
1.0
  9
$DIMGAP
 40
0.09
  9
$DIMJUST
 70
     0
  9
$DIMSD1
 70
     0
  9
$DIMSD2
 70
     0
  9
$DIMTOLJ
 70
     1
  9
$DIMTZIN
 70
     0
  9
$DIMALTZ
 70
     0
  9
$DIMALTTZ
 70
     0
  9
$DIMUPT
 70
     0
  9
$DIMDEC
 70
     4
  9
$DIMTDEC
 70
     4
  9
$DIMALTU
 70
     2
  9
$DIMALTTD
 70
     2
  9
$DIMTXSTY
  7
Standard
  9
$DIMAUNIT
 70
     0
  9
$DIMADEC
 70
     0
  9
$DIMALTRND
 40
0.0
  9
$DIMAZIN
 70
     0
  9
$DIMDSEP
 70
    46
  9
$DIMATFIT
 70
     3
  9
$DIMFRAC
 70
     0
  9
$DIMLDRBLK
  1

  9
$DIMLUNIT
 70
     2
  9
$DIMLWD
 70
    -2
  9
$DIMLWE
 70
    -2
  9
$DIMTMOVE
 70
     0
  9
$LUNITS
 70
     2
  9
$LUPREC
 70
     4
  9
$SKETCHINC
 40
0.1
  9
$FILLETRAD
 40
0.5
  9
$AUNITS
 70
     0
  9
$AUPREC
 70
     0
  9
$MENU
  1
.
  9
$ELEVATION
 40
0.0
  9
$PELEVATION
 40
0.0
  9
$THICKNESS
 40
0.0
  9
$LIMCHECK
 70
     0
  9
$CHAMFERA
 40
0.5
  9
$CHAMFERB
 40
0.5
  9
$CHAMFERC
 40
1.0
  9
$CHAMFERD
 40
0.0
  9
$SKPOLY
 70
     0
  9
$TDCREATE
 40
2455720.608303981
  9
$TDUCREATE
 40
2455720.524970648
  9
$TDUPDATE
 40
2455720.608303993
  9
$TDUUPDATE
 40
2455720.52497066
  9
$TDINDWG
 40
0.0000000116
  9
$TDUSRTIMER
 40
0.0000000116
  9
$USRTIMER
 70
     1
  9
$ANGBASE
 50
0.0
  9
$ANGDIR
 70
     0
  9
$PDMODE
 70
     0
  9
$PDSIZE
 40
0.0
  9
$PLINEWID
 40
0.0
  9
$SPLFRAME
 70
     0
  9
$SPLINETYPE
 70
     6
  9
$SPLINESEGS
 70
     8
  9
$HANDSEED
  5
3CE
  9
$SURFTAB1
 70
     6
  9
$SURFTAB2
 70
     6
  9
$SURFTYPE
 70
     6
  9
$SURFU
 70
     6
  9
$SURFV
 70
     6
  9
$UCSBASE
  2

  9
$UCSNAME
  2

  9
$UCSORG
 10
0.0
 20
0.0
 30
0.0
  9
$UCSXDIR
 10
1.0
 20
0.0
 30
0.0
  9
$UCSYDIR
 10
0.0
 20
1.0
 30
0.0
  9
$UCSORTHOREF
  2

  9
$UCSORTHOVIEW
 70
     0
  9
$UCSORGTOP
 10
0.0
 20
0.0
 30
0.0
  9
$UCSORGBOTTOM
 10
0.0
 20
0.0
 30
0.0
  9
$UCSORGLEFT
 10
0.0
 20
0.0
 30
0.0
  9
$UCSORGRIGHT
 10
0.0
 20
0.0
 30
0.0
  9
$UCSORGFRONT
 10
0.0
 20
0.0
 30
0.0
  9
$UCSORGBACK
 10
0.0
 20
0.0
 30
0.0
  9
$PUCSBASE
  2

  9
$PUCSNAME
  2

  9
$PUCSORG
 10
0.0
 20
0.0
 30
0.0
  9
$PUCSXDIR
 10
1.0
 20
0.0
 30
0.0
  9
$PUCSYDIR
 10
0.0
 20
1.0
 30
0.0
  9
$PUCSORTHOREF
  2

  9
$PUCSORTHOVIEW
 70
     0
  9
$PUCSORGTOP
 10
0.0
 20
0.0
 30
0.0
  9
$PUCSORGBOTTOM
 10
0.0
 20
0.0
 30
0.0
  9
$PUCSORGLEFT
 10
0.0
 20
0.0
 30
0.0
  9
$PUCSORGRIGHT
 10
0.0
 20
0.0
 30
0.0
  9
$PUCSORGFRONT
 10
0.0
 20
0.0
 30
0.0
  9
$PUCSORGBACK
 10
0.0
 20
0.0
 30
0.0
  9
$USERI1
 70
     0
  9
$USERI2
 70
     0
  9
$USERI3
 70
     0
  9
$USERI4
 70
     0
  9
$USERI5
 70
     0
  9
$USERR1
 40
17.0
  9
$USERR2
 40
0.0
  9
$USERR3
 40
0.0
  9
$USERR4
 40
0.0
  9
$USERR5
 40
0.0
  9
$WORLDVIEW
 70
     1
  9
$SHADEDGE
 70
     3
  9
$SHADEDIF
 70
    70
  9
$TILEMODE
 70
     1
  9
$MAXACTVP
 70
    64
  9
$PINSBASE
 10
0.0
 20
0.0
 30
0.0
  9
$PLIMCHECK
 70
     0
  9
$PEXTMIN
 10
1.00000000000000E+20
 20
1.00000000000000E+20
 30
1.00000000000000E+20
  9
$PEXTMAX
 10
-1.00000000000000E+20
 20
-1.00000000000000E+20
 30
-1.00000000000000E+20
  9
$PLIMMIN
 10
0.0
 20
0.0
  9
$PLIMMAX
 10
12.0
 20
9.0
  9
$UNITMODE
 70
     0
  9
$VISRETAIN
 70
     1
  9
$PLINEGEN
 70
     0
  9
$PSLTSCALE
 70
     1
  9
$TREEDEPTH
 70
  3020
  9
$CMLSTYLE
  2
Standard
  9
$CMLJUST
 70
     0
  9
$CMLSCALE
 40
1.0
  9
$PROXYGRAPHICS
 70
     1
  9
$MEASUREMENT
 70
     1
  9
$CELWEIGHT
370
    -1
  9
$ENDCAPS
280
     0
  9
$JOINSTYLE
280
     0
  9
$LWDISPLAY
290
     0
  9
$INSUNITS
 70
     1
  9
$HYPERLINKBASE
  1

  9
$STYLESHEET
  1

  9
$XEDIT
290
     1
  9
$CEPSNTYPE
380
     0
  9
$PSTYLEMODE
290
     1
  9
$FINGERPRINTGUID
  2
{CDCD71A8-DB19-4965-9E34-6646BCA1E0DE}
  9
$VERSIONGUID
  2
{FAEB1C32-E019-11D5-929B-00C0DF256EC4}
  9
$EXTNAMES
290
     1
  9
$PSVPSCALE
 40
0.0
  9
$OLESTARTUP
290
     0
  0
ENDSEC
  0
SECTION
  2
CLASSES
  0
CLASS
  1
ACDBDICTIONARYWDFLT
  2
AcDbDictionaryWithDefault
  3
ObjectDBX Classes
 90
        0
280
     0
281
     0
  0
CLASS
  1
VISUALSTYLE
  2
AcDbVisualStyle
  3
ObjectDBX Classes
 90
     4095
280
     0
281
     0
  0
CLASS
  1
MATERIAL
  2
AcDbMaterial
  3
ObjectDBX Classes
 90
     1153
280
     0
281
     0
  0
CLASS
  1
SCALE
  2
AcDbScale
  3
ObjectDBX Classes
 90
     1153
280
     0
281
     0
  0
CLASS
  1

  2
exOdDbPolyline
  3

 90
        0
280
     0
281
     1
  0
CLASS
  1

  2
exOdDbCircle
  3

 90
        0
280
     0
281
     1
  0
CLASS
  1

  2
exOdDbSpline
  3

 90
        0
280
     0
281
     1
  0
CLASS
  1
DICTIONARYVAR
  2
AcDbDictionaryVar
  3
ObjectDBX Classes
 90
        0
280
     0
281
     0
  0
CLASS
  1
ACDBPLACEHOLDER
  2
AcDbPlaceHolder
  3
ObjectDBX Classes
 90
        0
280
     0
281
     0
  0
CLASS
  1
LAYOUT
  2
AcDbLayout
  3
ObjectDBX Classes
 90
        0
280
     0
281
     0
  0
ENDSEC
  0
SECTION
  2
TABLES
  0
TABLE
  2
VPORT
  5
8
330
0
100
AcDbSymbolTable
 70
     1
  0
VPORT
  5
29
330
8
100
AcDbSymbolTableRecord
100
AcDbViewportTableRecord
  2
*Active
 70
     0
 10
0.0
 20
0.0
 11
1.0
 21
1.0
 12
234.674522857965
 22
170.791894363486
 13
0.0
 23
0.0
 14
0.5
 24
0.5
 15
0.5
 25
0.5
 16
0.0
 26
0.0
 36
1.0
 17
0.0
 27
0.0
 37
0.0
 40
314.6
 41
1.60267857142857
 42
50.0
 43
0.0
 44
0.0
 50
0.0
 51
0.0
 71
     0
 72
   100
 73
     1
 74
     3
 75
     0
 76
     0
 77
     0
 78
     0
281
     0
 65
     1
110
0.0
120
0.0
130
0.0
111
1.0
121
0.0
131
0.0
112
0.0
122
1.0
132
0.0
 79
     0
146
0.0
  0
ENDTAB
  0
TABLE
  2
LTYPE
  5
5
330
0
100
AcDbSymbolTable
 70
     8
  0
LTYPE
  5
14
330
5
100
AcDbSymbolTableRecord
100
AcDbLinetypeTableRecord
  2
ByBlock
 70
     0
  3

 72
    65
 73
     0
 40
0.0
  0
LTYPE
  5
15
330
5
100
AcDbSymbolTableRecord
100
AcDbLinetypeTableRecord
  2
ByLayer
 70
     0
  3

 72
    65
 73
     0
 40
0.0
  0
LTYPE
  5
16
330
5
100
AcDbSymbolTableRecord
100
AcDbLinetypeTableRecord
  2
Continuous
 70
     0
  3
Solid line
 72
    65
 73
     0
 40
0.0
  0
LTYPE
  5
3F
330
5
100
AcDbSymbolTableRecord
100
AcDbLinetypeTableRecord
  2
DASHED
 70
     0
  3
Dashed
 72
    65
 73
     2
 40
15.0
 49
7.0
 74
     0
 49
-8.0
 74
     0
  0
LTYPE
  5
40
330
5
100
AcDbSymbolTableRecord
100
AcDbLinetypeTableRecord
  2
DOTTED
 70
     0
  3
Dotted
 72
    65
 73
     2
 40
1.0
 49
0.0
 74
     0
 49
-1.0
 74
     0
  0
LTYPE
  5
41
330
5
100
AcDbSymbolTableRecord
100
AcDbLinetypeTableRecord
  2
DOT_CENTER
 70
     0
  3
Dot_Center
 72
    65
 73
     4
 40
14.0
 49
12.0
 74
     0
 49
-1.0
 74
     0
 49
0.0
 74
     0
 49
-1.0
 74
     0
  0
LTYPE
  5
42
330
5
100
AcDbSymbolTableRecord
100
AcDbLinetypeTableRecord
  2
LONG_DASHED
 70
     0
  3
Long_Dashed
 72
    65
 73
     2
 40
15.0
 49
10.0
 74
     0
 49
-5.0
 74
     0
  0
LTYPE
  5
43
330
5
100
AcDbSymbolTableRecord
100
AcDbLinetypeTableRecord
  2
DASH_CENTER
 70
     0
  3
Dash_Center
 72
    65
 73
     4
 40
14.0
 49
11.0
 74
     0
 49
-1.0
 74
     0
 49
1.0
 74
     0
 49
-1.0
 74
     0
  0
LTYPE
  5
44
330
5
100
AcDbSymbolTableRecord
100
AcDbLinetypeTableRecord
  2
PHANTOM
 70
     0
  3
Phantom
 72
    65
 73
     6
 40
13.0
 49
10.0
 74
     0
 49
-1.0
 74
     0
 49
0.0
 74
     0
 49
-1.0
 74
     0
 49
0.0
 74
     0
 49
-1.0
 74
     0
  0
LTYPE
  5
45
330
5
100
AcDbSymbolTableRecord
100
AcDbLinetypeTableRecord
  2
CENTER_DASH_DASH
 70
     0
  3
Center_Dash_Dash
 72
    65
 73
     6
 40
14.0
 49
9.0
 74
     0
 49
-1.0
 74
     0
 49
1.0
 74
     0
 49
-1.0
 74
     0
 49
1.0
 74
     0
 49
-1.0
 74
     0
  0
ENDTAB
  0
TABLE
  2
LAYER
  5
2
330
0
100
AcDbSymbolTable
 70
     2
  0
LAYER
  5
10
330
2
100
AcDbSymbolTableRecord
100
AcDbLayerTableRecord
  2
0
 70
     0
 62
     7
  6
Continuous
370
    -3
390
F
  0
LAYER
  5
46
330
2
100
AcDbSymbolTableRecord
100
AcDbLayerTableRecord
  2
1
 70
     0
 62
     7
  6
Continuous
370
    -3
390
F
  0
ENDTAB
  0
TABLE
  2
STYLE
  5
3
330
0
100
AcDbSymbolTable
 70
     9
  0
STYLE
  5
11
330
3
100
AcDbSymbolTableRecord
100
AcDbTextStyleTableRecord
  2
Standard
 70
     0
 40
0.0
 41
1.0
 50
0.0
 71
     0
 42
0.2
  3
txt
  4

  0
STYLE
  5
112
330
3
100
AcDbSymbolTableRecord
100
AcDbTextStyleTableRecord
  2
CONVERTER_11
 70
     0
 40
0.0
 41
0.9
 50
0.0
 71
     0
 42
0.2
  3
txt.shx
  4

  0
STYLE
  5
115
330
3
100
AcDbSymbolTableRecord
100
AcDbTextStyleTableRecord
  2
CONVERTER_12
 70
     0
 40
0.0
 41
0.72
 50
0.0
 71
     0
 42
0.2
  3
txt.shx
  4

  0
STYLE
  5
302
330
3
100
AcDbSymbolTableRecord
100
AcDbTextStyleTableRecord
  2
CONVERTER_13
 70
     0
 40
0.0
 41
0.765
 50
0.0
 71
     0
 42
0.2
  3
txt.shx
  4

  0
STYLE
  5
31B
330
3
100
AcDbSymbolTableRecord
100
AcDbTextStyleTableRecord
  2
CONVERTER_14
 70
     0
 40
0.0
 41
0.72
 50
0.0
 71
     0
 42
0.2
  3
txt.shx
  4

  0
STYLE
  5
334
330
3
100
AcDbSymbolTableRecord
100
AcDbTextStyleTableRecord
  2
CONVERTER_15
 70
     0
 40
0.0
 41
0.81
 50
0.0
 71
     0
 42
0.2
  3
txt.shx
  4

  0
STYLE
  5
336
330
3
100
AcDbSymbolTableRecord
100
AcDbTextStyleTableRecord
  2
CONVERTER_16
 70
     0
 40
0.0
 41
0.99
 50
0.0
 71
     0
 42
0.2
  3
txt.shx
  4

  0
STYLE
  5
355
330
3
100
AcDbSymbolTableRecord
100
AcDbTextStyleTableRecord
  2
CONVERTER_17
 70
     0
 40
0.0
 41
0.54
 50
0.0
 71
     0
 42
0.2
  3
txt.shx
  4

  0
STYLE
  5
387
330
3
100
AcDbSymbolTableRecord
100
AcDbTextStyleTableRecord
  2
CONVERTER_18
 70
     0
 40
0.0
 41
0.66696267749507
 50
0.0
 71
     0
 42
0.2
  3
txt.shx
  4

  0
ENDTAB
  0
TABLE
  2
VIEW
  5
6
330
0
100
AcDbSymbolTable
 70
     0
  0
ENDTAB
  0
TABLE
  2
UCS
  5
7
330
0
100
AcDbSymbolTable
 70
     0
  0
ENDTAB
  0
TABLE
  2
APPID
  5
9
330
0
100
AcDbSymbolTable
 70
     1
  0
APPID
  5
12
330
9
100
AcDbSymbolTableRecord
100
AcDbRegAppTableRecord
  2
ACAD
 70
     0
  0
ENDTAB
  0
TABLE
  2
DIMSTYLE
  5
A
330
0
100
AcDbSymbolTable
 70
     1
100
AcDbDimStyleTable
  0
DIMSTYLE
105
27
330
A
100
AcDbSymbolTableRecord
100
AcDbDimStyleTableRecord
  2
Standard
 70
     0
340
11
  0
ENDTAB
  0
TABLE
  2
BLOCK_RECORD
  5
1
330
0
100
AcDbSymbolTable
 70
    23
  0
BLOCK_RECORD
  5
1F
330
1
100
AcDbSymbolTableRecord
100
AcDbBlockTableRecord
  2
*Model_Space
340
22
  0
BLOCK_RECORD
  5
1B
330
1
100
AcDbSymbolTableRecord
100
AcDbBlockTableRecord
  2
*Paper_Space
340
1E
  0
BLOCK_RECORD
  5
23
330
1
100
AcDbSymbolTableRecord
100
AcDbBlockTableRecord
  2
*Paper_Space0
340
26
  0
BLOCK_RECORD
  5
47
330
1
100
AcDbSymbolTableRecord
100
AcDbBlockTableRecord
  2
20514-2-0211__1
340
0
102
{BLKREFS
331
76
102
}
  0
BLOCK_RECORD
  5
4A
330
1
100
AcDbSymbolTableRecord
100
AcDbBlockTableRecord
  2
20522-2-0228__2
340
0
102
{BLKREFS
331
77
102
}
  0
BLOCK_RECORD
  5
4D
330
1
100
AcDbSymbolTableRecord
100
AcDbBlockTableRecord
  2
20511-2-0217__3
340
0
102
{BLKREFS
331
78
102
}
  0
BLOCK_RECORD
  5
50
330
1
100
AcDbSymbolTableRecord
100
AcDbBlockTableRecord
  2
20511-2-0214_1__4
340
0
102
{BLKREFS
331
79
102
}
  0
BLOCK_RECORD
  5
53
330
1
100
AcDbSymbolTableRecord
100
AcDbBlockTableRecord
  2
20522-1-0101__5
340
0
102
{BLKREFS
331
7D
102
}
  0
BLOCK_RECORD
  5
7C
330
1
100
AcDbSymbolTableRecord
100
AcDbBlockTableRecord
  2
X__6
340
0
102
{BLKREFS
331
BD
102
}
  0
BLOCK_RECORD
  5
80
330
1
100
AcDbSymbolTableRecord
100
AcDbBlockTableRecord
  2
X__7
340
0
102
{BLKREFS
331
9B
102
}
  0
BLOCK_RECORD
  5
83
330
1
100
AcDbSymbolTableRecord
100
AcDbBlockTableRecord
  2
20514-2-0211__8
340
0
102
{BLKREFS
331
93
102
}
  0
BLOCK_RECORD
  5
86
330
1
100
AcDbSymbolTableRecord
100
AcDbBlockTableRecord
  2
20511-2-0217__9
340
0
102
{BLKREFS
331
94
102
}
  0
BLOCK_RECORD
  5
89
330
1
100
AcDbSymbolTableRecord
100
AcDbBlockTableRecord
  2
20511-2-0214_1__10
340
0
102
{BLKREFS
331
95
102
}
  0
BLOCK_RECORD
  5
8C
330
1
100
AcDbSymbolTableRecord
100
AcDbBlockTableRecord
  2
20522-2-0228__11
340
0
102
{BLKREFS
331
96
102
}
  0
BLOCK_RECORD
  5
8F
330
1
100
AcDbSymbolTableRecord
100
AcDbBlockTableRecord
  2
20514-2-0210
340
0
102
{BLKREFS
331
97
102
}
  0
BLOCK_RECORD
  5
92
330
1
100
AcDbSymbolTableRecord
100
AcDbBlockTableRecord
  2
20522-1-0101__12
340
0
102
{BLKREFS
331
9C
102
}
  0
BLOCK_RECORD
  5
9A
330
1
100
AcDbSymbolTableRecord
100
AcDbBlockTableRecord
  2
A-A__13
340
0
102
{BLKREFS
331
BE
102
}
  0
BLOCK_RECORD
  5
9F
330
1
100
AcDbSymbolTableRecord
100
AcDbBlockTableRecord
  2
A-A__14
340
0
102
{BLKREFS
331
B2
102
}
  0
BLOCK_RECORD
  5
A2
330
1
100
AcDbSymbolTableRecord
100
AcDbBlockTableRecord
  2
20511-2-0214_1__15
340
0
102
{BLKREFS
331
AC
102
}
  0
BLOCK_RECORD
  5
A5
330
1
100
AcDbSymbolTableRecord
100
AcDbBlockTableRecord
  2
20511-2-0214
340
0
102
{BLKREFS
331
AD
102
}
  0
BLOCK_RECORD
  5
A8
330
1
100
AcDbSymbolTableRecord
100
AcDbBlockTableRecord
  2
20522-2-0228__16
340
0
102
{BLKREFS
331
AE
102
}
  0
BLOCK_RECORD
  5
AB
330
1
100
AcDbSymbolTableRecord
100
AcDbBlockTableRecord
  2
20522-1-0101__17
340
0
102
{BLKREFS
331
B3
102
}
  0
BLOCK_RECORD
  5
B1
330
1
100
AcDbSymbolTableRecord
100
AcDbBlockTableRecord
  2
Vordans1
340
0
102
{BLKREFS
331
BF
102
}
  0
BLOCK_RECORD
  5
B6
330
1
100
AcDbSymbolTableRecord
100
AcDbBlockTableRecord
  2
a3gr
340
0
102
{BLKREFS
331
BA
102
}
  0
BLOCK_RECORD
  5
B9
330
1
100
AcDbSymbolTableRecord
100
AcDbBlockTableRecord
  2
rahmen
340
0
102
{BLKREFS
331
C0
102
}
  0
ENDTAB
  0
ENDSEC
  0
SECTION
  2
BLOCKS
  0
BLOCK
  5
20
330
1F
100
AcDbEntity
  8
0
100
AcDbBlockBegin
  2
*Model_Space
 70
     0
 10
0.0
 20
0.0
 30
0.0
  3
*Model_Space
  1

  0
ENDBLK
  5
21
330
1F
100
AcDbEntity
  8
0
100
AcDbBlockEnd
  0
BLOCK
  5
1C
330
1B
100
AcDbEntity
 67
     1
  8
0
100
AcDbBlockBegin
  2
*Paper_Space
 70
     0
 10
0.0
 20
0.0
 30
0.0
  3
*Paper_Space
  1

  0
ENDBLK
  5
1D
330
1B
100
AcDbEntity
 67
     1
  8
0
100
AcDbBlockEnd
  0
BLOCK
  5
24
330
23
100
AcDbEntity
  8
0
100
AcDbBlockBegin
  2
*Paper_Space0
 70
     0
 10
0.0
 20
0.0
 30
0.0
  3
*Paper_Space0
  1

  0
ENDBLK
  5
25
330
23
100
AcDbEntity
  8
0
100
AcDbBlockEnd
  0
BLOCK
  5
48
330
47
100
AcDbEntity
  8
0
100
AcDbBlockBegin
  2
20514-2-0211__1
 70
     0
 10
73.26158273254705
 20
67.40848941047827
 30
0.0
  3
20514-2-0211__1
  1

  0
LINE
  5
C1
102
{ACAD_REACTORS
330
C5
102
}
330
47
100
AcDbEntity
  8
0
  6
Continuous
 62
     1
100
AcDbLine
 10
73.26158273254705
 20
67.40848941047827
 30
0.0
 11
80.46134504327485
 21
67.40848941047827
 31
0.0
  0
LINE
  5
C2
102
{ACAD_REACTORS
330
C5
102
}
330
47
100
AcDbEntity
  8
0
  6
Continuous
 62
     1
100
AcDbLine
 10
80.46134504327485
 20
68.60848941047827
 30
0.0
 11
80.46134504327485
 21
67.40848941047827
 31
0.0
  0
LINE
  5
C3
102
{ACAD_REACTORS
330
C5
102
}
330
47
100
AcDbEntity
  8
0
  6
Continuous
 62
     1
100
AcDbLine
 10
74.16327937698479
 20
68.60848941047827
 30
0.0
 11
80.46134504327485
 21
68.60848941047827
 31
0.0
  0
ARC
  5
C4
102
{ACAD_REACTORS
330
C5
102
}
330
47
100
AcDbEntity
  8
0
  6
Continuous
 62
     7
100
AcDbCircle
 10
85.20896726987948
 20
59.36983263729096
 30
0.0
 40
14.4
100
AcDbArc
 50
140.0907566920957
 51
146.0658270976299
  0
HATCH
  5
C5
330
47
100
AcDbEntity
  8
0
  6
Continuous
 62
     3
100
AcDbHatch
 10
0.0
 20
0.0
 30
0.0
210
0.0
220
0.0
230
1.0
  2
CUSTOM0
 70
     0
 71
     1
 91
        1
 92
        1
 93
        4
 72
     1
 10
80.46134504327485
 20
67.40848941047827
 11
73.26158273254705
 21
67.40848941047827
 72
     2
 10
85.20896726987948
 20
59.36983263729096
 40
14.4
 50
213.9341729023701
 51
219.9092433079043
 73
     0
 72
     1
 10
74.16327937698479
 20
68.60848941047827
 11
80.46134504327485
 21
68.60848941047827
 72
     1
 10
80.46134504327485
 20
68.60848941047827
 11
80.46134504327485
 21
67.40848941047827
 97
        4
330
C3
330
C4
330
C1
330
C2
 75
     1
 76
     2
 52
225.0
 41
0.8
 77
     0
 78
     2
 53
315.0
 43
0.0
 44
0.0
 45
0.0000000000000003
 46
1.131370849898476
 79
     0
 53
225.0
 43
0.0
 44
0.0
 45
1.131370849898476
 46
-0.0000000000000006
 79
     0
 98
        1
 10
0.0
 20
0.0
  0
ENDBLK
  5
49
330
47
100
AcDbEntity
  8
0
100
AcDbBlockEnd
  0
BLOCK
  5
4B
330
4A
100
AcDbEntity
  8
0
100
AcDbBlockBegin
  2
20522-2-0228__2
 70
     0
 10
74.16327937698479
 20
44.96983263729096
 30
0.0
  3
20522-2-0228__2
  1

  0
LINE
  5
C6
330
4A
100
AcDbEntity
  8
0
  6
Continuous
 62
     1
100
AcDbLine
 10
86.4613450432749
 20
52.10848941047827
 30
0.0
 11
86.7613450432748
 21
52.10848941047827
 31
0.0
  0
LINE
  5
C7
330
4A
100
AcDbEntity
  8
0
  6
Continuous
 62
     1
100
AcDbLine
 10
84.86634504327485
 20
49.51348941047827
 30
0.0
 11
84.46134504327485
 21
49.10848941047827
 31
0.0
  0
LINE
  5
C8
330
4A
100
AcDbEntity
  8
0
  6
Continuous
 62
     1
100
AcDbLine
 10
84.86634504327485
 20
49.51348941047827
 30
0.0
 11
86.4613450432749
 21
49.51348941047827
 31
0.0
  0
LINE
  5
C9
330
4A
100
AcDbEntity
  8
0
  6
Continuous
 62
     1
100
AcDbLine
 10
86.7613450432748
 20
52.10848941047827
 30
0.0
 11
86.7613450432748
 21
60.10848941047827
 31
0.0
  0
LINE
  5
CA
330
4A
100
AcDbEntity
  8
0
  6
Continuous
 62
     1
100
AcDbLine
 10
84.46134504327485
 20
49.10848941047827
 30
0.0
 11
80.46134504327485
 21
49.10848941047827
 31
0.0
  0
LINE
  5
CB
330
4A
100
AcDbEntity
  8
0
  6
Continuous
 62
     1
100
AcDbLine
 10
80.46134504327485
 20
49.10848941047827
 30
0.0
 11
80.46134504327485
 21
45.77497761072117
 31
0.0
  0
LINE
  5
CC
330
4A
100
AcDbEntity
  8
0
  6
Continuous
 62
     1
100
AcDbLine
 10
86.4613450432749
 20
45.02439608371388
 30
0.0
 11
86.4613450432749
 21
49.51348941047827
 31
0.0
  0
LINE
  5
CD
330
4A
100
AcDbEntity
  8
0
  6
Continuous
 62
     1
100
AcDbLine
 10
86.4613450432749
 20
49.51348941047827
 30
0.0
 11
86.4613450432749
 21
52.10848941047827
 31
0.0
  0
LINE
  5
CE
102
{ACAD_REACTORS
330
DE
102
}
330
4A
100
AcDbEntity
  8
0
  6
Continuous
 62
     1
100
AcDbLine
 10
86.4613450432749
 20
66.70348941047827
 30
0.0
 11
86.4613450432749
 21
71.10848941047827
 31
0.0
  0
LINE
  5
CF
330
4A
100
AcDbEntity
  8
0
  6
Continuous
 62
     1
100
AcDbLine
 10
86.4613450432749
 20
60.10848941047828
 30
0.0
 11
86.4613450432749
 21
66.70348941047827
 31
0.0
  0
LINE
  5
D0
102
{ACAD_REACTORS
330
DE
102
}
330
4A
100
AcDbEntity
  8
0
  6
Continuous
 62
     1
100
AcDbLine
 10
84.86634504327485
 20
66.70348941047827
 30
0.0
 11
84.46134504327485
 21
67.10848941047827
 31
0.0
  0
LINE
  5
D1
102
{ACAD_REACTORS
330
DE
102
}
330
4A
100
AcDbEntity
  8
0
  6
Continuous
 62
     1
100
AcDbLine
 10
84.86634504327485
 20
66.70348941047827
 30
0.0
 11
86.4613450432749
 21
66.70348941047827
 31
0.0
  0
LINE
  5
D2
102
{ACAD_REACTORS
330
DE
102
}
330
4A
100
AcDbEntity
  8
0
  6
Continuous
 62
     1
100
AcDbLine
 10
80.46134504327485
 20
68.60848941047827
 30
0.0
 11
80.46134504327485
 21
67.40848941047827
 31
0.0
  0
LINE
  5
D3
102
{ACAD_REACTORS
330
DE
102
}
330
4A
100
AcDbEntity
  8
0
  6
Continuous
 62
     1
100
AcDbLine
 10
80.46134504327485
 20
67.40848941047827
 30
0.0
 11
80.46134504327485
 21
67.10848941047827
 31
0.0
  0
LINE
  5
D4
102
{ACAD_REACTORS
330
DE
102
}
330
4A
100
AcDbEntity
  8
0
  6
Continuous
 62
     1
100
AcDbLine
 10
84.46134504327485
 20
67.10848941047827
 30
0.0
 11
80.46134504327485
 21
67.10848941047827
 31
0.0
  0
LINE
  5
D5
102
{ACAD_REACTORS
330
DE
102
}
330
4A
100
AcDbEntity
  8
0
  6
Continuous
 62
     1
100
AcDbLine
 10
86.4613450432749
 20
71.10848941047827
 30
0.0
 11
76.86846745504201
 21
71.10848941047827
 31
0.0
  0
LINE
  5
D6
102
{ACAD_REACTORS
330
DE
102
}
330
4A
100
AcDbEntity
  8
0
  6
Continuous
 62
     1
100
AcDbLine
 10
74.16327937698479
 20
68.60848941047827
 30
0.0
 11
80.46134504327485
 21
68.60848941047827
 31
0.0
  0
LINE
  5
D7
330
4A
100
AcDbEntity
  8
0
  6
Continuous
 62
     1
100
AcDbLine
 10
86.4613450432749
 20
60.10848941047828
 30
0.0
 11
86.7613450432748
 21
60.10848941047827
 31
0.0
  0
LINE
  5
D8
330
4A
100
AcDbEntity
  8
1
  6
Continuous
 62
     3
100
AcDbLine
 10
84.46134504327485
 20
49.10848941047827
 30
0.0
 11
86.4613450432749
 21
49.10848941047827
 31
0.0
  0
LINE
  5
D9
330
4A
100
AcDbEntity
  8
1
  6
Continuous
 62
     3
100
AcDbLine
 10
84.46134504327485
 20
67.10848941047827
 30
0.0
 11
86.4613450432749
 21
67.10848941047827
 31
0.0
  0
ARC
  5
DA
102
{ACAD_REACTORS
330
DE
102
}
330
4A
100
AcDbEntity
  8
0
  6
Continuous
 62
     7
100
AcDbCircle
 10
85.20896726987948
 20
59.36983263729096
 30
0.0
 40
14.40000000000001
100
AcDbArc
 50
125.3943912685576
 51
140.0907566920957
  0
ARC
  5
DB
330
4A
100
AcDbEntity
  8
0
  6
Continuous
 62
     7
100
AcDbCircle
 10
85.20896726987948
 20
59.36983263729096
 30
0.0
 40
14.40000000000001
100
AcDbArc
 50
250.749675757031
 51
274.9893561948019
  0
HATCH
  5
DD
330
4A
100
AcDbEntity
  8
0
  6
Continuous
 62
     3
100
AcDbHatch
 10
0.0
 20
0.0
 30
0.0
210
0.0
220
0.0
230
1.0
  2
_USER
 70
     0
 71
     0
 91
        2
 92
        1
 93
        6
 72
     1
 10
84.86634504327485
 20
49.51348941047827
 11
84.46134504327485
 21
49.10848941047827
 72
     1
 10
84.46134504327485
 20
49.10848941047827
 11
80.46134504327485
 21
49.10848941047827
 72
     1
 10
80.46134504327485
 20
49.10848941047827
 11
80.46134504327485
 21
45.77497761072117
 72
     2
 10
85.20896726987948
 20
59.36983263729096
 40
14.40000000000001
 50
250.749675757031
 51
274.9893561948019
 73
     1
 72
     1
 10
86.4613450432749
 20
45.02439608371388
 11
86.4613450432749
 21
49.51348941047827
 72
     1
 10
86.4613450432749
 20
49.51348941047827
 11
84.86634504327485
 21
49.51348941047827
 97
        0
 92
       16
 93
        4
 72
     1
 10
53.4934607328055
 20
32.41426057310545
 11
84.5384607328055
 21
32.41426057310545
 72
     1
 10
84.5384607328055
 20
32.41426057310545
 11
84.5384607328055
 21
46.93926057310546
 72
     1
 10
84.5384607328055
 20
46.93926057310546
 11
53.4934607328055
 21
46.93926057310546
 72
     1
 10
53.4934607328055
 20
46.93926057310546
 11
53.4934607328055
 21
32.41426057310545
 97
        0
 75
     1
 76
     0
 52
135.0
 41
3.0
 77
     0
 78
     1
 53
135.0
 43
0.0
 44
0.0
 45
-2.121320343559643
 46
-2.121320343559642
 79
     0
 98
        1
 10
0.0
 20
0.0
  0
HATCH
  5
DE
330
4A
100
AcDbEntity
  8
0
  6
Continuous
 62
     3
100
AcDbHatch
 10
0.0
 20
0.0
 30
0.0
210
0.0
220
0.0
230
1.0
  2
_USER
 70
     0
 71
     1
 91
        1
 92
        1
 93
        9
 72
     1
 10
80.46134504327485
 20
67.40848941047827
 11
80.46134504327485
 21
67.10848941047827
 72
     1
 10
80.46134504327485
 20
67.10848941047827
 11
84.46134504327485
 21
67.10848941047827
 72
     1
 10
84.46134504327485
 20
67.10848941047827
 11
84.86634504327485
 21
66.70348941047827
 72
     1
 10
84.86634504327485
 20
66.70348941047827
 11
86.4613450432749
 21
66.70348941047827
 72
     1
 10
86.4613450432749
 20
66.70348941047827
 11
86.4613450432749
 21
71.10848941047827
 72
     1
 10
86.4613450432749
 20
71.10848941047827
 11
76.86846745504201
 21
71.10848941047827
 72
     2
 10
85.20896726987948
 20
59.36983263729096
 40
14.40000000000001
 50
125.3943912685576
 51
140.0907566920957
 73
     1
 72
     1
 10
74.16327937698479
 20
68.60848941047827
 11
80.46134504327485
 21
68.60848941047827
 72
     1
 10
80.46134504327485
 20
68.60848941047827
 11
80.46134504327485
 21
67.40848941047827
 97
        9
330
D6
330
DA
330
D5
330
CE
330
D1
330
D0
330
D4
330
D3
330
D2
 75
     1
 76
     0
 52
135.0
 41
3.0
 77
     0
 78
     1
 53
135.0
 43
0.0
 44
0.0
 45
-2.121320343559643
 46
-2.121320343559642
 79
     0
 98
        1
 10
0.0
 20
0.0
  0
ENDBLK
  5
4C
330
4A
100
AcDbEntity
  8
0
100
AcDbBlockEnd
  0
BLOCK
  5
4E
330
4D
100
AcDbEntity
  8
0
100
AcDbBlockBegin
  2
20511-2-0217__3
 70
     0
 10
78.76134504327484
 20
50.60848941047827
 30
0.0
  3
20511-2-0217__3
  1

  0
LINE
  5
DF
102
{ACAD_REACTORS
330
E7
102
}
330
4D
100
AcDbEntity
  8
0
  6
Continuous
 62
     1
100
AcDbLine
 10
78.76134504327484
 20
65.60848941047827
 30
0.0
 11
79.96134504327485
 21
65.60848941047827
 31
0.0
  0
LINE
  5
E0
102
{ACAD_REACTORS
330
E7
102
}
330
4D
100
AcDbEntity
  8
0
  6
Continuous
 62
     1
100
AcDbLine
 10
78.76134504327484
 20
50.60848941047827
 30
0.0
 11
79.96134504327485
 21
50.60848941047827
 31
0.0
  0
LINE
  5
E1
102
{ACAD_REACTORS
330
E7
102
}
330
4D
100
AcDbEntity
  8
0
  6
Continuous
 62
     1
100
AcDbLine
 10
78.76134504327484
 20
50.60848941047827
 30
0.0
 11
78.76134504327484
 21
65.60848941047827
 31
0.0
  0
LINE
  5
E2
102
{ACAD_REACTORS
330
E7
102
}
330
4D
100
AcDbEntity
  8
0
  6
Continuous
 62
     1
100
AcDbLine
 10
79.96134504327485
 20
54.64438779534052
 30
0.0
 11
79.96134504327485
 21
50.60848941047827
 31
0.0
  0
LINE
  5
E3
102
{ACAD_REACTORS
330
E7
102
}
330
4D
100
AcDbEntity
  8
0
  6
Continuous
 62
     1
100
AcDbLine
 10
79.96134504327485
 20
65.60848941047827
 30
0.0
 11
79.96134504327485
 21
61.57259102561603
 31
0.0
  0
LINE
  5
E4
102
{ACAD_REACTORS
330
E7
102
}
330
4D
100
AcDbEntity
  8
0
  6
Continuous
 62
     1
100
AcDbLine
 10
79.96134504327485
 20
56.3764386029094
 30
0.0
 11
79.96134504327485
 21
59.84054021804715
 31
0.0
  0
LINE
  5
E5
102
{ACAD_REACTORS
330
E7
102
}
330
4D
100
AcDbEntity
  8
0
  6
Continuous
 62
     1
100
AcDbLine
 10
79.96134504327485
 20
54.64438779534052
 30
0.0
 11
79.96134504327485
 21
56.3764386029094
 31
0.0
  0
LINE
  5
E6
102
{ACAD_REACTORS
330
E7
102
}
330
4D
100
AcDbEntity
  8
0
  6
Continuous
 62
     1
100
AcDbLine
 10
79.96134504327485
 20
59.84054021804715
 30
0.0
 11
79.96134504327485
 21
61.57259102561603
 31
0.0
  0
HATCH
  5
E7
330
4D
100
AcDbEntity
  8
0
  6
Continuous
 62
     3
100
AcDbHatch
 10
0.0
 20
0.0
 30
0.0
210
0.0
220
0.0
230
1.0
  2
CUSTOM1
 70
     0
 71
     1
 91
        1
 92
        1
 93
        8
 72
     1
 10
79.96134504327485
 20
65.60848941047827
 11
78.76134504327484
 21
65.60848941047827
 72
     1
 10
78.76134504327484
 20
65.60848941047827
 11
78.76134504327484
 21
50.60848941047827
 72
     1
 10
78.76134504327484
 20
50.60848941047827
 11
79.96134504327485
 21
50.60848941047827
 72
     1
 10
79.96134504327485
 20
50.60848941047827
 11
79.96134504327485
 21
54.64438779534052
 72
     1
 10
79.96134504327485
 20
54.64438779534052
 11
79.96134504327485
 21
56.3764386029094
 72
     1
 10
79.96134504327485
 20
56.3764386029094
 11
79.96134504327485
 21
59.84054021804715
 72
     1
 10
79.96134504327485
 20
59.84054021804715
 11
79.96134504327485
 21
61.57259102561603
 72
     1
 10
79.96134504327485
 20
61.57259102561603
 11
79.96134504327485
 21
65.60848941047827
 97
        8
330
E6
330
E4
330
E5
330
E2
330
E0
330
E1
330
DF
330
E3
 75
     1
 76
     2
 52
225.0
 41
0.8
 77
     0
 78
     2
 53
315.0
 43
0.0
 44
0.0
 45
0.0000000000000003
 46
1.131370849898476
 79
     0
 53
225.0
 43
0.0
 44
0.0
 45
1.131370849898476
 46
-0.0000000000000006
 79
     0
 98
        1
 10
0.0
 20
0.0
  0
ENDBLK
  5
4F
330
4D
100
AcDbEntity
  8
0
100
AcDbBlockEnd
  0
BLOCK
  5
51
330
50
100
AcDbEntity
  8
0
100
AcDbBlockBegin
  2
20511-2-0214_1__4
 70
     0
 10
79.46134504327485
 20
49.10848941047827
 30
0.0
  3
20511-2-0214_1__4
  1

  0
LINE
  5
E8
102
{ACAD_REACTORS
330
10E
102
}
330
50
100
AcDbEntity
  8
0
  6
Continuous
 62
     1
100
AcDbLine
 10
79.46134504327485
 20
66.80848941047826
 30
0.0
 11
79.46134504327485
 21
65.85848941047827
 31
0.0
  0
LINE
  5
E9
102
{ACAD_REACTORS
330
10E
102
}
330
50
100
AcDbEntity
  8
0
  6
Continuous
 62
     1
100
AcDbLine
 10
79.96134504327485
 20
65.85848941047827
 30
0.0
 11
79.46134504327485
 21
65.85848941047827
 31
0.0
  0
LINE
  5
EA
102
{ACAD_REACTORS
330
10D
102
}
330
50
100
AcDbEntity
  8
0
  6
Continuous
 62
     1
100
AcDbLine
 10
79.96134504327485
 20
54.64438779534052
 30
0.0
 11
84.96134504327485
 21
54.64438779534051
 31
0.0
  0
LINE
  5
EB
330
50
100
AcDbEntity
  8
0
  6
Continuous
 62
     1
100
AcDbLine
 10
84.96134504327485
 20
56.3764386029094
 30
0.0
 11
84.96134504327485
 21
54.64438779534051
 31
0.0
  0
LINE
  5
EC
330
50
100
AcDbEntity
  8
0
  6
Continuous
 62
     1
100
AcDbLine
 10
84.96134504327485
 20
59.84054021804715
 30
0.0
 11
84.96134504327485
 21
56.3764386029094
 31
0.0
  0
LINE
  5
ED
102
{ACAD_REACTORS
330
10D
102
}
330
50
100
AcDbEntity
  8
0
  6
Continuous
 62
     1
100
AcDbLine
 10
84.86634504327485
 20
49.51348941047827
 30
0.0
 11
84.46134504327485
 21
49.10848941047827
 31
0.0
  0
LINE
  5
EE
102
{ACAD_REACTORS
330
10D
102
}
330
50
100
AcDbEntity
  8
0
  6
Continuous
 62
     1
100
AcDbLine
 10
79.96134504327485
 20
50.60848941047827
 30
0.0
 11
79.96134504327485
 21
50.35848941047827
 31
0.0
  0
LINE
  5
EF
102
{ACAD_REACTORS
330
10D
102
}
330
50
100
AcDbEntity
  8
0
  6
Continuous
 62
     1
100
AcDbLine
 10
84.96134504327485
 20
49.60848941047827
 30
0.0
 11
84.86634504327485
 21
49.51348941047827
 31
0.0
  0
LINE
  5
F0
330
50
100
AcDbEntity
  8
0
  6
Continuous
 62
     1
100
AcDbLine
 10
84.96134504327485
 20
56.3764386029094
 30
0.0
 11
79.96134504327485
 21
56.3764386029094
 31
0.0
  0
LINE
  5
F1
102
{ACAD_REACTORS
330
10D
102
}
330
50
100
AcDbEntity
  8
0
  6
Continuous
 62
     1
100
AcDbLine
 10
84.96134504327485
 20
54.64438779534051
 30
0.0
 11
84.96134504327485
 21
49.60848941047827
 31
0.0
  0
LINE
  5
F2
102
{ACAD_REACTORS
330
10D
102
}
330
50
100
AcDbEntity
  8
0
  6
Continuous
 62
     1
100
AcDbLine
 10
84.46134504327485
 20
49.10848941047827
 30
0.0
 11
80.46134504327485
 21
49.10848941047827
 31
0.0
  0
LINE
  5
F3
102
{ACAD_REACTORS
330
10E
102
}
330
50
100
AcDbEntity
  8
0
  6
Continuous
 62
     1
100
AcDbLine
 10
79.46134504327485
 20
66.80848941047826
 30
0.0
 11
79.76134504327484
 21
67.10848941047827
 31
0.0
  0
LINE
  5
F4
102
{ACAD_REACTORS
330
10E
102
}
330
50
100
AcDbEntity
  8
0
  6
Continuous
 62
     1
100
AcDbLine
 10
84.86634504327485
 20
66.70348941047827
 30
0.0
 11
84.46134504327485
 21
67.10848941047827
 31
0.0
  0
LINE
  5
F5
102
{ACAD_REACTORS
330
10E
102
}
330
50
100
AcDbEntity
  8
0
  6
Continuous
 62
     1
100
AcDbLine
 10
84.46134504327485
 20
67.10848941047827
 30
0.0
 11
80.46134504327485
 21
67.10848941047827
 31
0.0
  0
LINE
  5
F6
102
{ACAD_REACTORS
330
10E
102
}
330
50
100
AcDbEntity
  8
0
  6
Continuous
 62
     1
100
AcDbLine
 10
80.46134504327485
 20
67.10848941047827
 30
0.0
 11
79.76134504327484
 21
67.10848941047827
 31
0.0
  0
LINE
  5
F7
330
50
100
AcDbEntity
  8
0
  6
Continuous
 62
     1
100
AcDbLine
 10
84.96134504327485
 20
59.84054021804715
 30
0.0
 11
79.96134504327485
 21
59.84054021804715
 31
0.0
  0
LINE
  5
F8
102
{ACAD_REACTORS
330
10E
102
}
330
50
100
AcDbEntity
  8
0
  6
Continuous
 62
     1
100
AcDbLine
 10
84.96134504327485
 20
61.57259102561603
 30
0.0
 11
79.96134504327485
 21
61.57259102561603
 31
0.0
  0
LINE
  5
F9
102
{ACAD_REACTORS
330
10E
102
}
330
50
100
AcDbEntity
  8
0
  6
Continuous
 62
     1
100
AcDbLine
 10
84.96134504327485
 20
66.60848941047827
 30
0.0
 11
84.86634504327485
 21
66.70348941047827
 31
0.0
  0
LINE
  5
FA
102
{ACAD_REACTORS
330
10E
102
}
330
50
100
AcDbEntity
  8
0
  6
Continuous
 62
     1
100
AcDbLine
 10
84.96134504327485
 20
66.60848941047827
 30
0.0
 11
84.96134504327485
 21
61.57259102561603
 31
0.0
  0
LINE
  5
FB
330
50
100
AcDbEntity
  8
0
  6
Continuous
 62
     1
100
AcDbLine
 10
84.96134504327485
 20
61.57259102561603
 30
0.0
 11
84.96134504327485
 21
59.84054021804715
 31
0.0
  0
LINE
  5
FC
102
{ACAD_REACTORS
330
10D
102
}
330
50
100
AcDbEntity
  8
0
  6
Continuous
 62
     1
100
AcDbLine
 10
79.46134504327485
 20
49.40848941047828
 30
0.0
 11
79.76134504327484
 21
49.10848941047827
 31
0.0
  0
LINE
  5
FD
102
{ACAD_REACTORS
330
10D
102
}
330
50
100
AcDbEntity
  8
0
  6
Continuous
 62
     1
100
AcDbLine
 10
79.96134504327485
 20
50.35848941047827
 30
0.0
 11
79.46134504327485
 21
50.35848941047827
 31
0.0
  0
LINE
  5
FE
102
{ACAD_REACTORS
330
10D
102
}
330
50
100
AcDbEntity
  8
0
  6
Continuous
 62
     1
100
AcDbLine
 10
79.46134504327485
 20
50.35848941047827
 30
0.0
 11
79.46134504327485
 21
49.40848941047828
 31
0.0
  0
LINE
  5
FF
330
50
100
AcDbEntity
  8
0
  6
Continuous
 62
     1
100
AcDbLine
 10
79.46134504327485
 20
50.60848941047827
 30
0.0
 11
79.46134504327485
 21
50.35848941047827
 31
0.0
  0
LINE
  5
100
330
50
100
AcDbEntity
  8
0
  6
Continuous
 62
     1
100
AcDbLine
 10
79.46134504327485
 20
65.85848941047827
 30
0.0
 11
79.46134504327485
 21
65.60848941047827
 31
0.0
  0
LINE
  5
101
102
{ACAD_REACTORS
330
10D
102
}
330
50
100
AcDbEntity
  8
0
  6
Continuous
 62
     1
100
AcDbLine
 10
80.46134504327485
 20
49.10848941047827
 30
0.0
 11
79.76134504327484
 21
49.10848941047827
 31
0.0
  0
LINE
  5
102
102
{ACAD_REACTORS
330
10D
102
}
330
50
100
AcDbEntity
  8
0
  6
Continuous
 62
     1
100
AcDbLine
 10
79.96134504327485
 20
54.64438779534052
 30
0.0
 11
79.96134504327485
 21
50.60848941047827
 31
0.0
  0
LINE
  5
103
102
{ACAD_REACTORS
330
10E
102
}
330
50
100
AcDbEntity
  8
0
  6
Continuous
 62
     1
100
AcDbLine
 10
79.96134504327485
 20
65.60848941047827
 30
0.0
 11
79.96134504327485
 21
61.57259102561603
 31
0.0
  0
LINE
  5
104
330
50
100
AcDbEntity
  8
0
  6
Continuous
 62
     1
100
AcDbLine
 10
79.96134504327485
 20
56.3764386029094
 30
0.0
 11
79.96134504327485
 21
59.84054021804715
 31
0.0
  0
LINE
  5
105
330
50
100
AcDbEntity
  8
0
  6
Continuous
 62
     1
100
AcDbLine
 10
79.96134504327485
 20
54.64438779534052
 30
0.0
 11
79.96134504327485
 21
56.3764386029094
 31
0.0
  0
LINE
  5
106
330
50
100
AcDbEntity
  8
0
  6
Continuous
 62
     1
100
AcDbLine
 10
79.96134504327485
 20
59.84054021804715
 30
0.0
 11
79.96134504327485
 21
61.57259102561603
 31
0.0
  0
LINE
  5
107
102
{ACAD_REACTORS
330
10E
102
}
330
50
100
AcDbEntity
  8
0
  6
Continuous
 62
     1
100
AcDbLine
 10
79.96134504327485
 20
65.85848941047827
 30
0.0
 11
79.96134504327485
 21
65.60848941047827
 31
0.0
  0
LINE
  5
108
330
50
100
AcDbEntity
  8
1
  6
Continuous
 62
     3
100
AcDbLine
 10
84.46134504327485
 20
49.56848941047827
 30
0.0
 11
80.46134504327485
 21
49.56848941047827
 31
0.0
  0
LINE
  5
109
330
50
100
AcDbEntity
  8
1
  6
Continuous
 62
     3
100
AcDbLine
 10
84.46134504327485
 20
66.64848941047828
 30
0.0
 11
80.46134504327485
 21
66.64848941047828
 31
0.0
  0
LINE
  5
10A
330
50
100
AcDbEntity
  8
1
  6
Continuous
 62
     3
100
AcDbLine
 10
80.46134504327485
 20
66.64848941047828
 30
0.0
 11
79.76134504327484
 21
66.64848941047828
 31
0.0
  0
LINE
  5
10B
330
50
100
AcDbEntity
  8
1
  6
Continuous
 62
     3
100
AcDbLine
 10
80.46134504327485
 20
49.56848941047827
 30
0.0
 11
79.76134504327484
 21
49.56848941047827
 31
0.0
  0
LINE
  5
10C
330
50
100
AcDbEntity
  8
1
  6
DASH_CENTER
 62
     3
100
AcDbLine
 10
88.652755536015
 20
58.10848941047827
 30
0.0
 11
76.75219900322598
 21
58.10848941047827
 31
0.0
  0
HATCH
  5
10D
330
50
100
AcDbEntity
  8
0
  6
Continuous
 62
     3
100
AcDbHatch
 10
0.0
 20
0.0
 30
0.0
210
0.0
220
0.0
230
1.0
  2
_USER
 70
     0
 71
     1
 91
        1
 92
        1
 93
       11
 72
     1
 10
79.96134504327485
 20
50.35848941047827
 11
79.46134504327485
 21
50.35848941047827
 72
     1
 10
79.46134504327485
 20
50.35848941047827
 11
79.46134504327485
 21
49.40848941047828
 72
     1
 10
79.46134504327485
 20
49.40848941047828
 11
79.76134504327484
 21
49.10848941047827
 72
     1
 10
79.76134504327484
 20
49.10848941047827
 11
80.46134504327485
 21
49.10848941047827
 72
     1
 10
80.46134504327485
 20
49.10848941047827
 11
84.46134504327485
 21
49.10848941047827
 72
     1
 10
84.46134504327485
 20
49.10848941047827
 11
84.86634504327485
 21
49.51348941047827
 72
     1
 10
84.86634504327485
 20
49.51348941047827
 11
84.96134504327485
 21
49.60848941047827
 72
     1
 10
84.96134504327485
 20
49.60848941047827
 11
84.96134504327485
 21
54.64438779534051
 72
     1
 10
84.96134504327485
 20
54.64438779534051
 11
79.96134504327485
 21
54.64438779534052
 72
     1
 10
79.96134504327485
 20
54.64438779534052
 11
79.96134504327485
 21
50.60848941047827
 72
     1
 10
79.96134504327485
 20
50.60848941047827
 11
79.96134504327485
 21
50.35848941047827
 97
       11
330
102
330
EA
330
F1
330
EF
330
ED
330
F2
330
101
330
FC
330
FE
330
FD
330
EE
 75
     1
 76
     0
 52
45.00000000000005
 41
1.2
 77
     0
 78
     1
 53
45.00000000000005
 43
0.0
 44
0.0
 45
-0.8485281374238577
 46
0.8485281374238562
 79
     0
 98
        1
 10
0.0
 20
0.0
  0
HATCH
  5
10E
330
50
100
AcDbEntity
  8
0
  6
Continuous
 62
     3
100
AcDbHatch
 10
0.0
 20
0.0
 30
0.0
210
0.0
220
0.0
230
1.0
  2
_USER
 70
     0
 71
     1
 91
        1
 92
        1
 93
       11
 72
     1
 10
79.96134504327485
 20
61.57259102561603
 11
84.96134504327485
 21
61.57259102561603
 72
     1
 10
84.96134504327485
 20
61.57259102561603
 11
84.96134504327485
 21
66.60848941047827
 72
     1
 10
84.96134504327485
 20
66.60848941047827
 11
84.86634504327485
 21
66.70348941047827
 72
     1
 10
84.86634504327485
 20
66.70348941047827
 11
84.46134504327485
 21
67.10848941047827
 72
     1
 10
84.46134504327485
 20
67.10848941047827
 11
80.46134504327485
 21
67.10848941047827
 72
     1
 10
80.46134504327485
 20
67.10848941047827
 11
79.76134504327484
 21
67.10848941047827
 72
     1
 10
79.76134504327484
 20
67.10848941047827
 11
79.46134504327485
 21
66.80848941047826
 72
     1
 10
79.46134504327485
 20
66.80848941047826
 11
79.46134504327485
 21
65.85848941047827
 72
     1
 10
79.46134504327485
 20
65.85848941047827
 11
79.96134504327485
 21
65.85848941047827
 72
     1
 10
79.96134504327485
 20
65.85848941047827
 11
79.96134504327485
 21
65.60848941047827
 72
     1
 10
79.96134504327485
 20
65.60848941047827
 11
79.96134504327485
 21
61.57259102561603
 97
       11
330
107
330
E9
330
E8
330
F3
330
F6
330
F5
330
F4
330
F9
330
FA
330
F8
330
103
 75
     1
 76
     0
 52
45.00000000000005
 41
1.2
 77
     0
 78
     1
 53
45.00000000000005
 43
0.0
 44
0.0
 45
-0.8485281374238577
 46
0.8485281374238562
 79
     0
 98
        1
 10
0.0
 20
0.0
  0
ENDBLK
  5
52
330
50
100
AcDbEntity
  8
0
100
AcDbBlockEnd
  0
BLOCK
  5
7A
330
53
100
AcDbEntity
  8
0
100
AcDbBlockBegin
  2
20522-1-0101__5
 70
     0
 10
73.26158273254705
 20
44.96983263729096
 30
0.0
  3
20522-1-0101__5
  1

  0
INSERT
  5
76
330
53
100
AcDbEntity
  8
0
100
AcDbBlockReference
  2
20514-2-0211__1
 10
73.26158273254705
 20
67.40848941047827
 30
0.0
  0
INSERT
  5
77
330
53
100
AcDbEntity
  8
0
100
AcDbBlockReference
  2
20522-2-0228__2
 10
74.16327937698479
 20
44.96983263729096
 30
0.0
  0
INSERT
  5
78
330
53
100
AcDbEntity
  8
0
100
AcDbBlockReference
  2
20511-2-0217__3
 10
78.76134504327484
 20
50.60848941047827
 30
0.0
  0
INSERT
  5
79
330
53
100
AcDbEntity
  8
0
100
AcDbBlockReference
  2
20511-2-0214_1__4
 10
79.46134504327485
 20
49.10848941047827
 30
0.0
  0
ENDBLK
  5
7B
330
53
100
AcDbEntity
  8
0
100
AcDbBlockEnd
  0
BLOCK
  5
7E
330
7C
100
AcDbEntity
  8
0
100
AcDbBlockBegin
  2
X__6
 70
     0
 10
78.45400031639828
 20
54.58699972687656
 30
0.0
  3
X__6
  1

  0
INSERT
  5
7D
330
7C
100
AcDbEntity
  8
0
100
AcDbBlockReference
  2
20522-1-0101__5
 10
73.26158273254705
 20
44.96983263729096
 30
0.0
  0
CIRCLE
  5
10F
102
{ACAD_REACTORS
330
110
102
}
330
7C
100
AcDbEntity
  8
1
 62
     3
100
AcDbCircle
 10
79.309191920644
 20
53.7884174158795
 30
0.0
 40
0.2
  0
HATCH
  5
110
330
7C
100
AcDbEntity
  8
1
 62
     3
100
AcDbHatch
 10
0.0
 20
0.0
 30
0.0
210
0.0
220
0.0
230
1.0
  2
SOLID
 70
     1
 71
     1
 91
        1
 92
        1
 93
        1
 72
     2
 10
79.309191920644
 20
53.7884174158795
 40
0.2
 50
0.0
 51
360.0
 73
     1
 97
        1
330
10F
 75
     0
 76
     1
 98
        0
  0
LEADER
  5
111
330
7C
100
AcDbEntity
  8
1
  6
Continuous
 62
     3
100
AcDbLeader
  3
Standard
 71
     0
 76
     3
 10
79.309191920644
 20
53.7884174158795
 30
0.0
 10
71.016231498101
 20
47.05184297851765
 30
0.0
 10
53.016231498101
 20
47.05184297851765
 30
0.0
  0
MTEXT
  5
113
330
7C
100
AcDbEntity
  8
1
 62
     1
100
AcDbMText
 10
80.0
 20
76.40089475303435
 30
0.0
 40
2.5
 41
0.0
 71
     2
 72
     1
  1
X 2:1
  7
CONVERTER_11
 73
     1
 44
1.02040816326531
  0
TEXT
  5
114
330
7C
100
AcDbEntity
  8
1
 62
     4
100
AcDbText
 10
53.70474422948001
 20
47.7095818062212
 30
0.0
 40
1.75
  1
20511-2-0217
 41
0.9
  7
CONVERTER_11
100
AcDbText
  0
MTEXT
  5
116
330
7C
100
AcDbEntity
  8
1
 62
     4
100
AcDbMText
 10
53.9309607328055
 20
32.85176057310545
 30
0.0
 40
1.75
 41
0.0
 71
     7
 72
     1
  1
glatte Seite mit\PKlebus Spezial angeklebt\Poder\Pmit doppelseitigem Klebeband\PFa.Steierform 87-92401
  7
CONVERTER_12
 73
     1
 44
1.02040816326531
  0
LWPOLYLINE
  5
117
330
7C
100
AcDbEntity
  8
1
 62
     3
100
AcDbPolyline
 90
        8
 70
     1
 43
0.0
 10
50.8643699008175
 20
41.36037589901745
 10
51.0643699008175
 20
41.36037589901745
 42
0.4142135623731
 10
52.0643699008175
 20
42.36037589901745
 10
52.0643699008175
 20
42.36037589901745
 42
0.4142135623731
 10
51.0643699008175
 20
43.36037589901745
 10
50.8643699008175
 20
43.36037589901745
 42
0.4142135623731
 10
49.8643699008175
 20
42.36037589901745
 10
49.8643699008175
 20
42.36037589901745
 42
0.4142135623731
  0
TEXT
  5
118
330
7C
100
AcDbEntity
  8
1
 62
     3
100
AcDbText
 10
50.3643699008175
 20
41.86037589901745
 30
0.0
 40
1.0
  1
01
 41
0.9
  7
CONVERTER_11
100
AcDbText
  0
ENDBLK
  5
7F
330
7C
100
AcDbEntity
  8
0
100
AcDbBlockEnd
  0
BLOCK
  5
81
330
80
100
AcDbEntity
  8
0
100
AcDbBlockBegin
  2
X__7
 70
     0
 10
0.0
 20
0.0
 30
0.0
  3
X__7
  1

  0
CIRCLE
  5
119
330
80
100
AcDbEntity
  8
1
  6
Continuous
 62
     3
100
AcDbCircle
 10
365.8476222266046
 20
232.7613432268127
 30
0.0
 40
14.40000000000003
  0
MTEXT
  5
11A
330
80
100
AcDbEntity
  8
1
 62
     1
100
AcDbMText
 10
381.8476222266046
 20
222.3613432268127
 30
0.0
 40
5.0
 41
0.0
 71
     2
 72
     1
  1
X
  7
CONVERTER_11
 73
     1
 44
1.02040816326531
  0
ENDBLK
  5
82
330
80
100
AcDbEntity
  8
0
100
AcDbBlockEnd
  0
BLOCK
  5
84
330
83
100
AcDbEntity
  8
0
100
AcDbBlockBegin
  2
20514-2-0211__8
 70
     0
 10
351.1
 20
240.8
 30
0.0
  3
20514-2-0211__8
  1

  0
LINE
  5
11B
102
{ACAD_REACTORS
330
11F
102
}
330
83
100
AcDbEntity
  8
0
  6
Continuous
 62
     4
100
AcDbLine
 10
351.1
 20
242.0
 30
0.0
 11
361.1
 21
242.0
 31
0.0
  0
LINE
  5
11C
102
{ACAD_REACTORS
330
11F
102
}
330
83
100
AcDbEntity
  8
0
  6
Continuous
 62
     4
100
AcDbLine
 10
361.1
 20
242.0
 30
0.0
 11
361.1
 21
240.8
 31
0.0
  0
LINE
  5
11D
102
{ACAD_REACTORS
330
11F
102
}
330
83
100
AcDbEntity
  8
0
  6
Continuous
 62
     4
100
AcDbLine
 10
351.1
 20
242.0
 30
0.0
 11
351.1
 21
240.8
 31
0.0
  0
LINE
  5
11E
102
{ACAD_REACTORS
330
11F
102
}
330
83
100
AcDbEntity
  8
0
  6
Continuous
 62
     4
100
AcDbLine
 10
351.1
 20
240.8
 30
0.0
 11
361.1
 21
240.8
 31
0.0
  0
HATCH
  5
11F
330
83
100
AcDbEntity
  8
0
  6
Continuous
 62
     3
100
AcDbHatch
 10
0.0
 20
0.0
 30
0.0
210
0.0
220
0.0
230
1.0
  2
CUSTOM2
 70
     0
 71
     1
 91
        1
 92
        1
 93
        4
 72
     1
 10
361.1
 20
242.0
 11
351.1
 21
242.0
 72
     1
 10
351.1
 20
242.0
 11
351.1
 21
240.8
 72
     1
 10
351.1
 20
240.8
 11
361.1
 21
240.8
 72
     1
 10
361.1
 20
240.8
 11
361.1
 21
242.0
 97
        4
330
11E
330
11D
330
11B
330
11C
 75
     1
 76
     2
 52
225.0
 41
0.8
 77
     0
 78
     2
 53
315.0
 43
0.0
 44
0.0
 45
0.0000000000000003
 46
1.131370849898476
 79
     0
 53
225.0
 43
0.0
 44
0.0
 45
1.131370849898476
 46
-0.0000000000000006
 79
     0
 98
        1
 10
0.0
 20
0.0
  0
ENDBLK
  5
85
330
83
100
AcDbEntity
  8
0
100
AcDbBlockEnd
  0
BLOCK
  5
87
330
86
100
AcDbEntity
  8
0
100
AcDbBlockBegin
  2
20511-2-0217__9
 70
     0
 10
359.4
 20
224.0
 30
0.0
  3
20511-2-0217__9
  1

  0
LINE
  5
120
102
{ACAD_REACTORS
330
128
102
}
330
86
100
AcDbEntity
  8
0
  6
Continuous
 62
     4
100
AcDbLine
 10
359.4
 20
239.0
 30
0.0
 11
360.6
 21
239.0
 31
0.0
  0
LINE
  5
121
102
{ACAD_REACTORS
330
128
102
}
330
86
100
AcDbEntity
  8
0
  6
Continuous
 62
     4
100
AcDbLine
 10
360.6
 20
239.0
 30
0.0
 11
360.6
 21
234.9641016151377
 31
0.0
  0
LINE
  5
122
102
{ACAD_REACTORS
330
128
102
}
330
86
100
AcDbEntity
  8
0
  6
Continuous
 62
     4
100
AcDbLine
 10
360.6
 20
233.2320508075689
 30
0.0
 11
360.6
 21
234.9641016151377
 31
0.0
  0
LINE
  5
123
102
{ACAD_REACTORS
330
128
102
}
330
86
100
AcDbEntity
  8
0
  6
Continuous
 62
     4
100
AcDbLine
 10
360.6
 20
229.7679491924311
 30
0.0
 11
360.6
 21
233.2320508075689
 31
0.0
  0
LINE
  5
124
102
{ACAD_REACTORS
330
128
102
}
330
86
100
AcDbEntity
  8
0
  6
Continuous
 62
     4
100
AcDbLine
 10
360.6
 20
228.0358983848623
 30
0.0
 11
360.6
 21
224.0
 31
0.0
  0
LINE
  5
125
102
{ACAD_REACTORS
330
128
102
}
330
86
100
AcDbEntity
  8
0
  6
Continuous
 62
     4
100
AcDbLine
 10
360.6
 20
228.0358983848623
 30
0.0
 11
360.6
 21
229.7679491924311
 31
0.0
  0
LINE
  5
126
102
{ACAD_REACTORS
330
128
102
}
330
86
100
AcDbEntity
  8
0
  6
Continuous
 62
     4
100
AcDbLine
 10
359.4
 20
224.0
 30
0.0
 11
359.4
 21
239.0
 31
0.0
  0
LINE
  5
127
102
{ACAD_REACTORS
330
128
102
}
330
86
100
AcDbEntity
  8
0
  6
Continuous
 62
     4
100
AcDbLine
 10
359.4
 20
224.0
 30
0.0
 11
360.6
 21
224.0
 31
0.0
  0
HATCH
  5
128
330
86
100
AcDbEntity
  8
0
  6
Continuous
 62
     3
100
AcDbHatch
 10
0.0
 20
0.0
 30
0.0
210
0.0
220
0.0
230
1.0
  2
CUSTOM3
 70
     0
 71
     1
 91
        1
 92
        1
 93
        8
 72
     1
 10
360.6
 20
228.0358983848623
 11
360.6
 21
229.7679491924311
 72
     1
 10
360.6
 20
229.7679491924311
 11
360.6
 21
233.2320508075689
 72
     1
 10
360.6
 20
233.2320508075689
 11
360.6
 21
234.9641016151377
 72
     1
 10
360.6
 20
234.9641016151377
 11
360.6
 21
239.0
 72
     1
 10
360.6
 20
239.0
 11
359.4
 21
239.0
 72
     1
 10
359.4
 20
239.0
 11
359.4
 21
224.0
 72
     1
 10
359.4
 20
224.0
 11
360.6
 21
224.0
 72
     1
 10
360.6
 20
224.0
 11
360.6
 21
228.0358983848623
 97
        8
330
127
330
126
330
120
330
121
330
122
330
123
330
125
330
124
 75
     1
 76
     2
 52
225.0
 41
0.8
 77
     0
 78
     2
 53
315.0
 43
0.0
 44
0.0
 45
0.0000000000000003
 46
1.131370849898476
 79
     0
 53
225.0
 43
0.0
 44
0.0
 45
1.131370849898476
 46
-0.0000000000000006
 79
     0
 98
        1
 10
0.0
 20
0.0
  0
ENDBLK
  5
88
330
86
100
AcDbEntity
  8
0
100
AcDbBlockEnd
  0
BLOCK
  5
8A
330
89
100
AcDbEntity
  8
0
100
AcDbBlockBegin
  2
20511-2-0214_1__10
 70
     0
 10
360.1
 20
222.5
 30
0.0
  3
20511-2-0214_1__10
  1

  0
LINE
  5
129
102
{ACAD_REACTORS
330
14E
102
}
330
89
100
AcDbEntity
  8
0
  6
Continuous
 62
     4
100
AcDbLine
 10
365.505
 20
240.095
 30
0.0
 11
365.1
 21
240.5
 31
0.0
  0
LINE
  5
12A
102
{ACAD_REACTORS
330
14E
102
}
330
89
100
AcDbEntity
  8
0
  6
Continuous
 62
     4
100
AcDbLine
 10
365.6
 20
234.9641016151377
 30
0.0
 11
360.6
 21
234.9641016151377
 31
0.0
  0
LINE
  5
12B
102
{ACAD_REACTORS
330
14E
102
}
330
89
100
AcDbEntity
  8
0
  6
Continuous
 62
     4
100
AcDbLine
 10
365.6
 20
240.0
 30
0.0
 11
365.6
 21
234.9641016151377
 31
0.0
  0
LINE
  5
12C
102
{ACAD_REACTORS
330
14E
102
}
330
89
100
AcDbEntity
  8
0
  6
Continuous
 62
     4
100
AcDbLine
 10
365.6
 20
240.0
 30
0.0
 11
365.505
 21
240.095
 31
0.0
  0
LINE
  5
12D
330
89
100
AcDbEntity
  8
0
  6
Continuous
 62
     4
100
AcDbLine
 10
365.6
 20
234.9641016151377
 30
0.0
 11
365.6
 21
233.2320508075689
 31
0.0
  0
LINE
  5
12E
102
{ACAD_REACTORS
330
14E
102
}
330
89
100
AcDbEntity
  8
0
  6
Continuous
 62
     4
100
AcDbLine
 10
360.6
 20
239.25
 30
0.0
 11
360.1
 21
239.25
 31
0.0
  0
LINE
  5
12F
102
{ACAD_REACTORS
330
14E
102
}
330
89
100
AcDbEntity
  8
0
  6
Continuous
 62
     4
100
AcDbLine
 10
360.1
 20
240.2
 30
0.0
 11
360.1
 21
239.25
 31
0.0
  0
LINE
  5
130
102
{ACAD_REACTORS
330
14E
102
}
330
89
100
AcDbEntity
  8
0
  6
Continuous
 62
     4
100
AcDbLine
 10
360.6
 20
239.0
 30
0.0
 11
360.6
 21
234.9641016151377
 31
0.0
  0
LINE
  5
131
102
{ACAD_REACTORS
330
14E
102
}
330
89
100
AcDbEntity
  8
0
  6
Continuous
 62
     4
100
AcDbLine
 10
360.6
 20
239.25
 30
0.0
 11
360.6
 21
239.0
 31
0.0
  0
LINE
  5
132
330
89
100
AcDbEntity
  8
0
  6
Continuous
 62
     4
100
AcDbLine
 10
365.6
 20
233.2320508075689
 30
0.0
 11
360.6
 21
233.2320508075689
 31
0.0
  0
LINE
  5
133
330
89
100
AcDbEntity
  8
0
  6
Continuous
 62
     4
100
AcDbLine
 10
360.6
 20
233.2320508075689
 30
0.0
 11
360.6
 21
234.9641016151377
 31
0.0
  0
LINE
  5
134
102
{ACAD_REACTORS
330
14F
102
}
330
89
100
AcDbEntity
  8
0
  6
Continuous
 62
     4
100
AcDbLine
 10
360.1
 20
222.8
 30
0.0
 11
360.4
 21
222.5
 31
0.0
  0
LINE
  5
135
102
{ACAD_REACTORS
330
14F
102
}
330
89
100
AcDbEntity
  8
0
  6
Continuous
 62
     4
100
AcDbLine
 10
360.6
 20
223.75
 30
0.0
 11
360.1
 21
223.75
 31
0.0
  0
LINE
  5
136
330
89
100
AcDbEntity
  8
0
  6
Continuous
 62
     4
100
AcDbLine
 10
360.6
 20
229.7679491924311
 30
0.0
 11
360.6
 21
233.2320508075689
 31
0.0
  0
LINE
  5
137
102
{ACAD_REACTORS
330
14F
102
}
330
89
100
AcDbEntity
  8
0
  6
Continuous
 62
     4
100
AcDbLine
 10
360.6
 20
228.0358983848623
 30
0.0
 11
360.6
 21
224.0
 31
0.0
  0
LINE
  5
138
330
89
100
AcDbEntity
  8
0
  6
Continuous
 62
     4
100
AcDbLine
 10
360.6
 20
228.0358983848623
 30
0.0
 11
360.6
 21
229.7679491924311
 31
0.0
  0
LINE
  5
139
102
{ACAD_REACTORS
330
14F
102
}
330
89
100
AcDbEntity
  8
0
  6
Continuous
 62
     4
100
AcDbLine
 10
360.6
 20
224.0
 30
0.0
 11
360.6
 21
223.75
 31
0.0
  0
LINE
  5
13A
102
{ACAD_REACTORS
330
14F
102
}
330
89
100
AcDbEntity
  8
0
  6
Continuous
 62
     4
100
AcDbLine
 10
360.1
 20
223.75
 30
0.0
 11
360.1
 21
222.8
 31
0.0
  0
LINE
  5
13B
330
89
100
AcDbEntity
  8
0
  6
Continuous
 62
     4
100
AcDbLine
 10
360.1
 20
224.0
 30
0.0
 11
360.1
 21
223.75
 31
0.0
  0
LINE
  5
13C
330
89
100
AcDbEntity
  8
0
  6
Continuous
 62
     4
100
AcDbLine
 10
360.1
 20
239.25
 30
0.0
 11
360.1
 21
239.0
 31
0.0
  0
LINE
  5
13D
102
{ACAD_REACTORS
330
14F
102
}
330
89
100
AcDbEntity
  8
0
  6
Continuous
 62
     4
100
AcDbLine
 10
361.1
 20
222.5
 30
0.0
 11
360.4
 21
222.5
 31
0.0
  0
LINE
  5
13E
102
{ACAD_REACTORS
330
14E
102
}
330
89
100
AcDbEntity
  8
0
  6
Continuous
 62
     4
100
AcDbLine
 10
360.1
 20
240.2
 30
0.0
 11
360.4
 21
240.5
 31
0.0
  0
LINE
  5
13F
102
{ACAD_REACTORS
330
14E
102
}
330
89
100
AcDbEntity
  8
0
  6
Continuous
 62
     4
100
AcDbLine
 10
365.1
 20
240.5
 30
0.0
 11
361.1
 21
240.5
 31
0.0
  0
LINE
  5
140
102
{ACAD_REACTORS
330
14E
102
}
330
89
100
AcDbEntity
  8
0
  6
Continuous
 62
     4
100
AcDbLine
 10
361.1
 20
240.5
 30
0.0
 11
360.4
 21
240.5
 31
0.0
  0
LINE
  5
141
102
{ACAD_REACTORS
330
14F
102
}
330
89
100
AcDbEntity
  8
0
  6
Continuous
 62
     4
100
AcDbLine
 10
365.6
 20
223.0
 30
0.0
 11
365.505
 21
222.905
 31
0.0
  0
LINE
  5
142
330
89
100
AcDbEntity
  8
0
  6
Continuous
 62
     4
100
AcDbLine
 10
365.6
 20
233.2320508075689
 30
0.0
 11
365.6
 21
229.7679491924311
 31
0.0
  0
LINE
  5
143
102
{ACAD_REACTORS
330
14F
102
}
330
89
100
AcDbEntity
  8
0
  6
Continuous
 62
     4
100
AcDbLine
 10
365.6
 20
228.0358983848622
 30
0.0
 11
365.6
 21
223.0
 31
0.0
  0
LINE
  5
144
330
89
100
AcDbEntity
  8
0
  6
Continuous
 62
     4
100
AcDbLine
 10
365.6
 20
229.7679491924311
 30
0.0
 11
365.6
 21
228.0358983848622
 31
0.0
  0
LINE
  5
145
102
{ACAD_REACTORS
330
14F
102
}
330
89
100
AcDbEntity
  8
0
  6
Continuous
 62
     4
100
AcDbLine
 10
360.6
 20
228.0358983848623
 30
0.0
 11
365.6
 21
228.0358983848622
 31
0.0
  0
LINE
  5
146
102
{ACAD_REACTORS
330
14F
102
}
330
89
100
AcDbEntity
  8
0
  6
Continuous
 62
     4
100
AcDbLine
 10
365.505
 20
222.905
 30
0.0
 11
365.1
 21
222.5
 31
0.0
  0
LINE
  5
147
102
{ACAD_REACTORS
330
14F
102
}
330
89
100
AcDbEntity
  8
0
  6
Continuous
 62
     4
100
AcDbLine
 10
365.1
 20
222.5
 30
0.0
 11
361.1
 21
222.5
 31
0.0
  0
LINE
  5
148
330
89
100
AcDbEntity
  8
0
  6
Continuous
 62
     4
100
AcDbLine
 10
365.6
 20
229.7679491924311
 30
0.0
 11
360.6
 21
229.7679491924311
 31
0.0
  0
LINE
  5
149
330
89
100
AcDbEntity
  8
1
  6
Continuous
 62
     3
100
AcDbLine
 10
361.1
 20
222.96
 30
0.0
 11
360.4
 21
222.96
 31
0.0
  0
LINE
  5
14A
330
89
100
AcDbEntity
  8
1
  6
Continuous
 62
     3
100
AcDbLine
 10
365.1
 20
240.04
 30
0.0
 11
361.1
 21
240.04
 31
0.0
  0
LINE
  5
14B
330
89
100
AcDbEntity
  8
1
  6
Continuous
 62
     3
100
AcDbLine
 10
361.1
 20
240.04
 30
0.0
 11
360.4
 21
240.04
 31
0.0
  0
LINE
  5
14C
330
89
100
AcDbEntity
  8
1
  6
Continuous
 62
     3
100
AcDbLine
 10
365.1
 20
222.96
 30
0.0
 11
361.1
 21
222.96
 31
0.0
  0
LINE
  5
14D
330
89
100
AcDbEntity
  8
1
  6
DASH_CENTER
 62
     3
100
AcDbLine
 10
368.984376010546
 20
231.5
 30
0.0
 11
357.642447902344
 21
231.5
 31
0.0
  0
HATCH
  5
14E
330
89
100
AcDbEntity
  8
0
  6
Continuous
 62
     3
100
AcDbHatch
 10
0.0
 20
0.0
 30
0.0
210
0.0
220
0.0
230
1.0
  2
_USER
 70
     0
 71
     1
 91
        1
 92
        1
 93
       11
 72
     1
 10
360.1
 20
240.2
 11
360.1
 21
239.25
 72
     1
 10
360.1
 20
239.25
 11
360.6
 21
239.25
 72
     1
 10
360.6
 20
239.25
 11
360.6
 21
239.0
 72
     1
 10
360.6
 20
239.0
 11
360.6
 21
234.9641016151377
 72
     1
 10
360.6
 20
234.9641016151377
 11
365.6
 21
234.9641016151377
 72
     1
 10
365.6
 20
234.9641016151377
 11
365.6
 21
240.0
 72
     1
 10
365.6
 20
240.0
 11
365.505
 21
240.095
 72
     1
 10
365.505
 20
240.095
 11
365.1
 21
240.5
 72
     1
 10
365.1
 20
240.5
 11
361.1
 21
240.5
 72
     1
 10
361.1
 20
240.5
 11
360.4
 21
240.5
 72
     1
 10
360.4
 20
240.5
 11
360.1
 21
240.2
 97
       11
330
140
330
13F
330
129
330
12C
330
12B
330
12A
330
130
330
131
330
12E
330
12F
330
13E
 75
     1
 76
     0
 52
45.00000000000005
 41
1.2
 77
     0
 78
     1
 53
45.00000000000005
 43
0.0
 44
0.0
 45
-0.8485281374238577
 46
0.8485281374238562
 79
     0
 98
        1
 10
0.0
 20
0.0
  0
HATCH
  5
14F
330
89
100
AcDbEntity
  8
0
  6
Continuous
 62
     3
100
AcDbHatch
 10
0.0
 20
0.0
 30
0.0
210
0.0
220
0.0
230
1.0
  2
_USER
 70
     0
 71
     1
 91
        1
 92
        1
 93
       11
 72
     1
 10
360.4
 20
222.5
 11
360.1
 21
222.8
 72
     1
 10
360.1
 20
222.8
 11
360.1
 21
223.75
 72
     1
 10
360.1
 20
223.75
 11
360.6
 21
223.75
 72
     1
 10
360.6
 20
223.75
 11
360.6
 21
224.0
 72
     1
 10
360.6
 20
224.0
 11
360.6
 21
228.0358983848623
 72
     1
 10
360.6
 20
228.0358983848623
 11
365.6
 21
228.0358983848622
 72
     1
 10
365.6
 20
228.0358983848622
 11
365.6
 21
223.0
 72
     1
 10
365.6
 20
223.0
 11
365.505
 21
222.905
 72
     1
 10
365.505
 20
222.905
 11
365.1
 21
222.5
 72
     1
 10
365.1
 20
222.5
 11
361.1
 21
222.5
 72
     1
 10
361.1
 20
222.5
 11
360.4
 21
222.5
 97
       11
330
147
330
146
330
141
330
143
330
145
330
137
330
139
330
135
330
13A
330
134
330
13D
 75
     1
 76
     0
 52
45.00000000000005
 41
1.2
 77
     0
 78
     1
 53
45.00000000000005
 43
0.0
 44
0.0
 45
-0.8485281374238577
 46
0.8485281374238562
 79
     0
 98
        1
 10
0.0
 20
0.0
  0
ENDBLK
  5
8B
330
89
100
AcDbEntity
  8
0
100
AcDbBlockEnd
  0
BLOCK
  5
8D
330
8C
100
AcDbEntity
  8
0
100
AcDbBlockBegin
  2
20522-2-0228__11
 70
     0
 10
346.6
 20
177.5
 30
0.0
  3
20522-2-0228__11
  1

  0
LINE
  5
150
102
{ACAD_REACTORS
330
18A
102
}
330
8C
100
AcDbEntity
  8
0
  6
Continuous
 62
     4
100
AcDbLine
 10
365.505
 20
240.095
 30
0.0
 11
365.1
 21
240.5
 31
0.0
  0
LINE
  5
151
102
{ACAD_REACTORS
330
188
102
}
330
8C
100
AcDbEntity
  8
0
  6
Continuous
 62
     4
100
AcDbLine
 10
361.1
 20
222.5
 30
0.0
 11
361.1
 21
203.420587105624
 31
0.0
  0
LINE
  5
152
102
{ACAD_REACTORS
330
187
102
}
330
8C
100
AcDbEntity
  8
0
  6
Continuous
 62
     4
100
AcDbLine
 10
361.1
 20
203.420587105624
 30
0.0
 11
361.1
 21
187.565
 31
0.0
  0
LINE
  5
153
330
8C
100
AcDbEntity
  8
0
  6
Continuous
 62
     4
100
AcDbLine
 10
361.1
 20
185.5
 30
0.0
 11
361.1
 21
187.565
 31
0.0
  0
LINE
  5
154
330
8C
100
AcDbEntity
  8
0
  6
Continuous
 62
     4
100
AcDbLine
 10
361.1
 20
183.435
 30
0.0
 11
361.1
 21
185.5
 31
0.0
  0
LINE
  5
155
102
{ACAD_REACTORS
330
186
102
}
330
8C
100
AcDbEntity
  8
0
  6
Continuous
 62
     4
100
AcDbLine
 10
361.1
 20
183.435
 30
0.0
 11
361.1
 21
177.5
 31
0.0
  0
LINE
  5
156
102
{ACAD_REACTORS
330
18A
102
}
330
8C
100
AcDbEntity
  8
0
  6
Continuous
 62
     4
100
AcDbLine
 10
365.1
 20
240.5
 30
0.0
 11
361.1
 21
240.5
 31
0.0
  0
LINE
  5
157
102
{ACAD_REACTORS
330
18A
102
}
330
8C
100
AcDbEntity
  8
0
  6
Continuous
 62
     4
100
AcDbLine
 10
365.505
 20
240.095
 30
0.0
 11
367.1
 21
240.095
 31
0.0
  0
LINE
  5
158
102
{ACAD_REACTORS
330
18A
102
}
330
8C
100
AcDbEntity
  8
0
  6
Continuous
 62
     4
100
AcDbLine
 10
351.1
 20
242.0
 30
0.0
 11
361.1
 21
242.0
 31
0.0
  0
LINE
  5
159
102
{ACAD_REACTORS
330
18A
102
}
330
8C
100
AcDbEntity
  8
0
  6
Continuous
 62
     4
100
AcDbLine
 10
349.1
 20
242.0
 30
0.0
 11
350.3
 21
242.0
 31
0.0
  0
LINE
  5
15A
102
{ACAD_REACTORS
330
18A
102
}
330
8C
100
AcDbEntity
  8
0
  6
Continuous
 62
     4
100
AcDbLine
 10
350.3
 20
242.0
 30
0.0
 11
351.1
 21
242.0
 31
0.0
  0
LINE
  5
15B
102
{ACAD_REACTORS
330
18A
102
}
330
8C
100
AcDbEntity
  8
0
  6
Continuous
 62
     4
100
AcDbLine
 10
361.1
 20
242.0
 30
0.0
 11
361.1
 21
240.8
 31
0.0
  0
LINE
  5
15C
102
{ACAD_REACTORS
330
18A
102
}
330
8C
100
AcDbEntity
  8
0
  6
Continuous
 62
     4
100
AcDbLine
 10
361.1
 20
240.8
 30
0.0
 11
361.1
 21
240.5
 31
0.0
  0
LINE
  5
15D
102
{ACAD_REACTORS
330
18A
102
}
330
8C
100
AcDbEntity
  8
0
  6
Continuous
 62
     4
100
AcDbLine
 10
367.1
 20
244.5
 30
0.0
 11
346.6
 21
244.5
 31
0.0
  0
LINE
  5
15E
330
8C
100
AcDbEntity
  8
0
  6
Continuous
 62
     4
100
AcDbLine
 10
367.4
 20
225.5
 30
0.0
 11
367.4
 21
233.5
 31
0.0
  0
LINE
  5
15F
330
8C
100
AcDbEntity
  8
0
  6
Continuous
 62
     4
100
AcDbLine
 10
367.1
 20
222.905
 30
0.0
 11
367.1
 21
225.5
 31
0.0
  0
LINE
  5
160
102
{ACAD_REACTORS
330
188
102
}
330
8C
100
AcDbEntity
  8
0
  6
Continuous
 62
     4
100
AcDbLine
 10
365.505
 20
222.905
 30
0.0
 11
367.1
 21
222.905
 31
0.0
  0
LINE
  5
161
330
8C
100
AcDbEntity
  8
0
  6
Continuous
 62
     4
100
AcDbLine
 10
367.1
 20
225.5
 30
0.0
 11
367.4
 21
225.5
 31
0.0
  0
LINE
  5
162
330
8C
100
AcDbEntity
  8
0
  6
Continuous
 62
     4
100
AcDbLine
 10
367.1
 20
233.5
 30
0.0
 11
367.4
 21
233.5
 31
0.0
  0
LINE
  5
163
102
{ACAD_REACTORS
330
189
102
}
330
8C
100
AcDbEntity
  8
0
  6
Continuous
 62
     4
100
AcDbLine
 10
349.1
 20
179.0
 30
0.0
 11
349.1
 21
203.420587105624
 31
0.0
  0
LINE
  5
164
102
{ACAD_REACTORS
330
186
102
}
330
8C
100
AcDbEntity
  8
0
  6
Continuous
 62
     4
100
AcDbLine
 10
361.1
 20
177.5
 30
0.0
 11
367.1
 21
177.5
 31
0.0
  0
LINE
  5
165
330
8C
100
AcDbEntity
  8
0
  6
Continuous
 62
     4
100
AcDbLine
 10
367.4
 20
183.435
 30
0.0
 11
367.4
 21
185.5
 31
0.0
  0
LINE
  5
166
102
{ACAD_REACTORS
330
186
102
}
330
8C
100
AcDbEntity
  8
0
  6
Continuous
 62
     4
100
AcDbLine
 10
361.1
 20
183.435
 30
0.0
 11
367.4
 21
183.435
 31
0.0
  0
LINE
  5
167
102
{ACAD_REACTORS
330
187
330
188
102
}
330
8C
100
AcDbEntity
  8
0
  6
PHANTOM
 62
    30
100
AcDbLine
 10
361.1
 20
203.420587105624
 30
0.0
 11
367.1
 21
203.420587105624
 31
0.0
  0
LINE
  5
168
102
{ACAD_REACTORS
330
187
102
}
330
8C
100
AcDbEntity
  8
0
  6
Continuous
 62
     4
100
AcDbLine
 10
361.1
 20
187.565
 30
0.0
 11
367.4
 21
187.565
 31
0.0
  0
LINE
  5
169
330
8C
100
AcDbEntity
  8
0
  6
Continuous
 62
     4
100
AcDbLine
 10
367.4
 20
185.5
 30
0.0
 11
367.4
 21
187.565
 31
0.0
  0
LINE
  5
16A
102
{ACAD_REACTORS
330
189
102
}
330
8C
100
AcDbEntity
  8
0
  6
Continuous
 62
     4
100
AcDbLine
 10
349.1
 20
177.5
 30
0.0
 11
349.1
 21
179.0
 31
0.0
  0
LINE
  5
16B
102
{ACAD_REACTORS
330
18A
102
}
330
8C
100
AcDbEntity
  8
0
  6
Continuous
 62
     4
100
AcDbLine
 10
367.1
 20
240.095
 30
0.0
 11
367.1
 21
244.5
 31
0.0
  0
LINE
  5
16C
102
{ACAD_REACTORS
330
188
102
}
330
8C
100
AcDbEntity
  8
0
  6
Continuous
 62
     4
100
AcDbLine
 10
367.1
 20
203.420587105624
 30
0.0
 11
367.1
 21
222.905
 31
0.0
  0
LINE
  5
16D
102
{ACAD_REACTORS
330
187
102
}
330
8C
100
AcDbEntity
  8
0
  6
Continuous
 62
     4
100
AcDbLine
 10
367.1
 20
189.5
 30
0.0
 11
367.1
 21
203.420587105624
 31
0.0
  0
LINE
  5
16E
330
8C
100
AcDbEntity
  8
0
  6
Continuous
 62
     4
100
AcDbLine
 10
367.1
 20
233.5
 30
0.0
 11
367.1
 21
240.095
 31
0.0
  0
LINE
  5
16F
102
{ACAD_REACTORS
330
186
102
}
330
8C
100
AcDbEntity
  8
0
  6
Continuous
 62
     4
100
AcDbLine
 10
367.1
 20
177.5
 30
0.0
 11
367.1
 21
181.5
 31
0.0
  0
LINE
  5
170
102
{ACAD_REACTORS
330
186
102
}
330
8C
100
AcDbEntity
  8
0
  6
Continuous
 62
     4
100
AcDbLine
 10
367.1
 20
181.5
 30
0.0
 11
367.4
 21
181.5
 31
0.0
  0
LINE
  5
171
102
{ACAD_REACTORS
330
187
102
}
330
8C
100
AcDbEntity
  8
0
  6
Continuous
 62
     4
100
AcDbLine
 10
367.4
 20
189.5
 30
0.0
 11
367.1
 21
189.5
 31
0.0
  0
LINE
  5
172
102
{ACAD_REACTORS
330
186
102
}
330
8C
100
AcDbEntity
  8
0
  6
Continuous
 62
     4
100
AcDbLine
 10
367.4
 20
181.5
 30
0.0
 11
367.4
 21
183.435
 31
0.0
  0
LINE
  5
173
102
{ACAD_REACTORS
330
187
102
}
330
8C
100
AcDbEntity
  8
0
  6
Continuous
 62
     4
100
AcDbLine
 10
367.4
 20
187.565
 30
0.0
 11
367.4
 21
189.5
 31
0.0
  0
LINE
  5
174
102
{ACAD_REACTORS
330
188
102
}
330
8C
100
AcDbEntity
  8
0
  6
Continuous
 62
     4
100
AcDbLine
 10
365.505
 20
222.905
 30
0.0
 11
365.1
 21
222.5
 31
0.0
  0
LINE
  5
175
102
{ACAD_REACTORS
330
188
102
}
330
8C
100
AcDbEntity
  8
0
  6
Continuous
 62
     4
100
AcDbLine
 10
365.1
 20
222.5
 30
0.0
 11
361.1
 21
222.5
 31
0.0
  0
LINE
  5
176
102
{ACAD_REACTORS
330
18A
102
}
330
8C
100
AcDbEntity
  8
0
  6
Continuous
 62
     4
100
AcDbLine
 10
346.6
 20
244.5
 30
0.0
 11
346.6
 21
203.420587105624
 31
0.0
  0
LINE
  5
177
102
{ACAD_REACTORS
330
189
102
}
330
8C
100
AcDbEntity
  8
0
  6
Continuous
 62
     4
100
AcDbLine
 10
346.6
 20
203.420587105624
 30
0.0
 11
346.6
 21
177.5
 31
0.0
  0
LINE
  5
178
102
{ACAD_REACTORS
330
189
330
18A
102
}
330
8C
100
AcDbEntity
  8
0
  6
PHANTOM
 62
    30
100
AcDbLine
 10
346.6
 20
203.420587105624
 30
0.0
 11
349.1
 21
203.420587105624
 31
0.0
  0
LINE
  5
179
102
{ACAD_REACTORS
330
189
102
}
330
8C
100
AcDbEntity
  8
0
  6
Continuous
 62
     4
100
AcDbLine
 10
346.6
 20
177.5
 30
0.0
 11
349.1
 21
177.5
 31
0.0
  0
LINE
  5
17A
102
{ACAD_REACTORS
330
18A
102
}
330
8C
100
AcDbEntity
  8
0
  6
Continuous
 62
     4
100
AcDbLine
 10
349.1
 20
203.420587105624
 30
0.0
 11
349.1
 21
242.0
 31
0.0
  0
LINE
  5
17B
330
8C
100
AcDbEntity
  8
1
  6
Continuous
 62
     3
100
AcDbLine
 10
365.1
 20
240.5
 30
0.0
 11
367.1
 21
240.5
 31
0.0
  0
LINE
  5
17C
330
8C
100
AcDbEntity
  8
1
  6
Continuous
 62
     3
100
AcDbLine
 10
365.1
 20
222.5
 30
0.0
 11
367.1
 21
222.5
 31
0.0
  0
LINE
  5
17D
330
8C
100
AcDbEntity
  8
1
  6
Continuous
 62
     3
100
AcDbLine
 10
367.4
 20
183.0
 30
0.0
 11
361.1
 21
183.0
 31
0.0
  0
LINE
  5
17E
330
8C
100
AcDbEntity
  8
1
  6
Continuous
 62
     4
100
AcDbLine
 10
361.1
 20
183.435
 30
0.0
 11
361.1
 21
183.0
 31
0.0
  0
LINE
  5
17F
330
8C
100
AcDbEntity
  8
1
  6
Continuous
 62
     3
100
AcDbLine
 10
367.4
 20
188.0
 30
0.0
 11
361.1
 21
188.0
 31
0.0
  0
LINE
  5
180
330
8C
100
AcDbEntity
  8
1
  6
Continuous
 62
     4
100
AcDbLine
 10
361.1
 20
187.565
 30
0.0
 11
361.1
 21
188.0
 31
0.0
  0
LINE
  5
181
330
8C
100
AcDbEntity
  8
1
  6
Continuous
 62
     3
100
AcDbLine
 10
367.4
 20
183.0
 30
0.0
 11
361.1
 21
183.0
 31
0.0
  0
LINE
  5
182
330
8C
100
AcDbEntity
  8
1
  6
Continuous
 62
     4
100
AcDbLine
 10
361.1
 20
183.435
 30
0.0
 11
361.1
 21
183.0
 31
0.0
  0
LINE
  5
183
330
8C
100
AcDbEntity
  8
1
  6
Continuous
 62
     3
100
AcDbLine
 10
367.4
 20
188.0
 30
0.0
 11
361.1
 21
188.0
 31
0.0
  0
LINE
  5
184
330
8C
100
AcDbEntity
  8
1
  6
Continuous
 62
     4
100
AcDbLine
 10
361.1
 20
187.565
 30
0.0
 11
361.1
 21
188.0
 31
0.0
  0
LINE
  5
185
330
8C
100
AcDbEntity
  8
1
  6
DASH_CENTER
 62
     3
100
AcDbLine
 10
358.723876285244
 20
185.5
 30
0.0
 11
369.591342113219
 21
185.5
 31
0.0
  0
HATCH
  5
186
330
8C
100
AcDbEntity
  8
0
  6
Continuous
 62
     3
100
AcDbHatch
 10
0.0
 20
0.0
 30
0.0
210
0.0
220
0.0
230
1.0
  2
_USER
 70
     0
 71
     1
 91
        1
 92
        1
 93
        6
 72
     1
 10
361.1
 20
183.435
 11
361.1
 21
177.5
 72
     1
 10
361.1
 20
177.5
 11
367.1
 21
177.5
 72
     1
 10
367.1
 20
177.5
 11
367.1
 21
181.5
 72
     1
 10
367.1
 20
181.5
 11
367.4
 21
181.5
 72
     1
 10
367.4
 20
181.5
 11
367.4
 21
183.435
 72
     1
 10
367.4
 20
183.435
 11
361.1
 21
183.435
 97
        6
330
172
330
170
330
16F
330
164
330
155
330
166
 75
     1
 76
     0
 52
135.0
 41
3.0
 77
     0
 78
     1
 53
135.0
 43
0.0
 44
0.0
 45
-2.121320343559643
 46
-2.121320343559642
 79
     0
 98
        1
 10
0.0
 20
0.0
  0
HATCH
  5
187
330
8C
100
AcDbEntity
  8
0
  6
Continuous
 62
     3
100
AcDbHatch
 10
0.0
 20
0.0
 30
0.0
210
0.0
220
0.0
230
1.0
  2
_USER
 70
     0
 71
     1
 91
        1
 92
        1
 93
        6
 72
     1
 10
367.1
 20
189.5
 11
367.1
 21
203.420587105624
 72
     1
 10
367.1
 20
203.420587105624
 11
361.1
 21
203.420587105624
 72
     1
 10
361.1
 20
203.420587105624
 11
361.1
 21
187.565
 72
     1
 10
361.1
 20
187.565
 11
367.4
 21
187.565
 72
     1
 10
367.4
 20
187.565
 11
367.4
 21
189.5
 72
     1
 10
367.4
 20
189.5
 11
367.1
 21
189.5
 97
        6
330
173
330
168
330
152
330
167
330
16D
330
171
 75
     1
 76
     0
 52
135.0
 41
3.0
 77
     0
 78
     1
 53
135.0
 43
0.0
 44
0.0
 45
-2.121320343559643
 46
-2.121320343559642
 79
     0
 98
        1
 10
0.0
 20
0.0
  0
HATCH
  5
188
330
8C
100
AcDbEntity
  8
0
  6
Continuous
 62
     3
100
AcDbHatch
 10
0.0
 20
0.0
 30
0.0
210
0.0
220
0.0
230
1.0
  2
_USER
 70
     0
 71
     1
 91
        1
 92
        1
 93
        6
 72
     1
 10
361.1
 20
203.420587105624
 11
367.1
 21
203.420587105624
 72
     1
 10
367.1
 20
203.420587105624
 11
367.1
 21
222.905
 72
     1
 10
367.1
 20
222.905
 11
365.505
 21
222.905
 72
     1
 10
365.505
 20
222.905
 11
365.1
 21
222.5
 72
     1
 10
365.1
 20
222.5
 11
361.1
 21
222.5
 72
     1
 10
361.1
 20
222.5
 11
361.1
 21
203.420587105624
 97
        6
330
175
330
174
330
160
330
16C
330
167
330
151
 75
     1
 76
     0
 52
135.0
 41
3.0
 77
     0
 78
     1
 53
135.0
 43
0.0
 44
0.0
 45
-2.121320343559643
 46
-2.121320343559642
 79
     0
 98
        1
 10
0.0
 20
0.0
  0
HATCH
  5
189
330
8C
100
AcDbEntity
  8
0
  6
Continuous
 62
     3
100
AcDbHatch
 10
0.0
 20
0.0
 30
0.0
210
0.0
220
0.0
230
1.0
  2
_USER
 70
     0
 71
     1
 91
        1
 92
        1
 93
        5
 72
     1
 10
349.1
 20
179.0
 11
349.1
 21
203.420587105624
 72
     1
 10
349.1
 20
203.420587105624
 11
346.6
 21
203.420587105624
 72
     1
 10
346.6
 20
203.420587105624
 11
346.6
 21
177.5
 72
     1
 10
346.6
 20
177.5
 11
349.1
 21
177.5
 72
     1
 10
349.1
 20
177.5
 11
349.1
 21
179.0
 97
        5
330
179
330
177
330
178
330
163
330
16A
 75
     1
 76
     0
 52
135.0
 41
3.0
 77
     0
 78
     1
 53
135.0
 43
0.0
 44
0.0
 45
-2.121320343559643
 46
-2.121320343559642
 79
     0
 98
        1
 10
0.0
 20
0.0
  0
HATCH
  5
18A
330
8C
100
AcDbEntity
  8
0
  6
Continuous
 62
     3
100
AcDbHatch
 10
0.0
 20
0.0
 30
0.0
210
0.0
220
0.0
230
1.0
  2
_USER
 70
     0
 71
     1
 91
        1
 92
        1
 93
       13
 72
     1
 10
350.3
 20
242.0
 11
351.1
 21
242.0
 72
     1
 10
351.1
 20
242.0
 11
361.1
 21
242.0
 72
     1
 10
361.1
 20
242.0
 11
361.1
 21
240.8
 72
     1
 10
361.1
 20
240.8
 11
361.1
 21
240.5
 72
     1
 10
361.1
 20
240.5
 11
365.1
 21
240.5
 72
     1
 10
365.1
 20
240.5
 11
365.505
 21
240.095
 72
     1
 10
365.505
 20
240.095
 11
367.1
 21
240.095
 72
     1
 10
367.1
 20
240.095
 11
367.1
 21
244.5
 72
     1
 10
367.1
 20
244.5
 11
346.6
 21
244.5
 72
     1
 10
346.6
 20
244.5
 11
346.6
 21
203.420587105624
 72
     1
 10
346.6
 20
203.420587105624
 11
349.1
 21
203.420587105624
 72
     1
 10
349.1
 20
203.420587105624
 11
349.1
 21
242.0
 72
     1
 10
349.1
 20
242.0
 11
350.3
 21
242.0
 97
       13
330
17A
330
178
330
176
330
15D
330
16B
330
157
330
150
330
156
330
15C
330
15B
330
158
330
15A
330
159
 75
     1
 76
     0
 52
135.0
 41
3.0
 77
     0
 78
     1
 53
135.0
 43
0.0
 44
0.0
 45
-2.121320343559643
 46
-2.121320343559642
 79
     0
 98
        1
 10
0.0
 20
0.0
  0
ENDBLK
  5
8E
330
8C
100
AcDbEntity
  8
0
100
AcDbBlockEnd
  0
BLOCK
  5
90
330
8F
100
AcDbEntity
  8
0
100
AcDbBlockBegin
  2
20514-2-0210
 70
     0
 10
349.1
 20
179.0
 30
0.0
  3
20514-2-0210
  1

  0
LINE
  5
18B
102
{ACAD_REACTORS
330
193
102
}
330
8F
100
AcDbEntity
  8
0
  6
Continuous
 62
     4
100
AcDbLine
 10
349.1
 20
242.0
 30
0.0
 11
350.3
 21
242.0
 31
0.0
  0
LINE
  5
18C
102
{ACAD_REACTORS
330
192
102
}
330
8F
100
AcDbEntity
  8
0
  6
Continuous
 62
     4
100
AcDbLine
 10
349.1
 20
179.0
 30
0.0
 11
349.1
 21
203.420587105624
 31
0.0
  0
LINE
  5
18D
102
{ACAD_REACTORS
330
192
102
}
330
8F
100
AcDbEntity
  8
0
  6
Continuous
 62
     4
100
AcDbLine
 10
350.3
 20
203.420587105624
 30
0.0
 11
350.3
 21
179.0
 31
0.0
  0
LINE
  5
18E
102
{ACAD_REACTORS
330
192
330
193
102
}
330
8F
100
AcDbEntity
  8
0
  6
PHANTOM
 62
    30
100
AcDbLine
 10
349.1
 20
203.420587105624
 30
0.0
 11
350.3
 21
203.420587105624
 31
0.0
  0
LINE
  5
18F
102
{ACAD_REACTORS
330
192
102
}
330
8F
100
AcDbEntity
  8
0
  6
Continuous
 62
     4
100
AcDbLine
 10
349.1
 20
179.0
 30
0.0
 11
350.3
 21
179.0
 31
0.0
  0
LINE
  5
190
102
{ACAD_REACTORS
330
193
102
}
330
8F
100
AcDbEntity
  8
0
  6
Continuous
 62
     4
100
AcDbLine
 10
350.3
 20
242.0
 30
0.0
 11
350.3
 21
203.420587105624
 31
0.0
  0
LINE
  5
191
102
{ACAD_REACTORS
330
193
102
}
330
8F
100
AcDbEntity
  8
0
  6
Continuous
 62
     4
100
AcDbLine
 10
349.1
 20
203.420587105624
 30
0.0
 11
349.1
 21
242.0
 31
0.0
  0
HATCH
  5
192
330
8F
100
AcDbEntity
  8
0
  6
Continuous
 62
     3
100
AcDbHatch
 10
0.0
 20
0.0
 30
0.0
210
0.0
220
0.0
230
1.0
  2
CUSTOM4
 70
     0
 71
     1
 91
        1
 92
        1
 93
        4
 72
     1
 10
350.3
 20
203.420587105624
 11
349.1
 21
203.420587105624
 72
     1
 10
349.1
 20
203.420587105624
 11
349.1
 21
179.0
 72
     1
 10
349.1
 20
179.0
 11
350.3
 21
179.0
 72
     1
 10
350.3
 20
179.0
 11
350.3
 21
203.420587105624
 97
        4
330
18F
330
18C
330
18E
330
18D
 75
     1
 76
     2
 52
225.0
 41
0.8
 77
     0
 78
     2
 53
315.0
 43
0.0
 44
0.0
 45
0.0000000000000003
 46
1.131370849898476
 79
     0
 53
225.0
 43
0.0
 44
0.0
 45
1.131370849898476
 46
-0.0000000000000006
 79
     0
 98
        1
 10
0.0
 20
0.0
  0
HATCH
  5
193
330
8F
100
AcDbEntity
  8
0
  6
Continuous
 62
     3
100
AcDbHatch
 10
0.0
 20
0.0
 30
0.0
210
0.0
220
0.0
230
1.0
  2
CUSTOM5
 70
     0
 71
     1
 91
        1
 92
        1
 93
        4
 72
     1
 10
350.3
 20
242.0
 11
350.3
 21
203.420587105624
 72
     1
 10
350.3
 20
203.420587105624
 11
349.1
 21
203.420587105624
 72
     1
 10
349.1
 20
203.420587105624
 11
349.1
 21
242.0
 72
     1
 10
349.1
 20
242.0
 11
350.3
 21
242.0
 97
        4
330
191
330
18E
330
190
330
18B
 75
     1
 76
     2
 52
225.0
 41
0.8
 77
     0
 78
     2
 53
315.0
 43
0.0
 44
0.0
 45
0.0000000000000003
 46
1.131370849898476
 79
     0
 53
225.0
 43
0.0
 44
0.0
 45
1.131370849898476
 46
-0.0000000000000006
 79
     0
 98
        1
 10
0.0
 20
0.0
  0
ENDBLK
  5
91
330
8F
100
AcDbEntity
  8
0
100
AcDbBlockEnd
  0
BLOCK
  5
98
330
92
100
AcDbEntity
  8
0
100
AcDbBlockBegin
  2
20522-1-0101__12
 70
     0
 10
346.6
 20
177.5
 30
0.0
  3
20522-1-0101__12
  1

  0
INSERT
  5
93
330
92
100
AcDbEntity
  8
0
100
AcDbBlockReference
  2
20514-2-0211__8
 10
351.1
 20
240.8
 30
0.0
  0
INSERT
  5
94
330
92
100
AcDbEntity
  8
0
100
AcDbBlockReference
  2
20511-2-0217__9
 10
359.4
 20
224.0
 30
0.0
  0
INSERT
  5
95
330
92
100
AcDbEntity
  8
0
100
AcDbBlockReference
  2
20511-2-0214_1__10
 10
360.1
 20
222.5
 30
0.0
  0
INSERT
  5
96
330
92
100
AcDbEntity
  8
0
100
AcDbBlockReference
  2
20522-2-0228__11
 10
346.6
 20
177.5
 30
0.0
  0
INSERT
  5
97
330
92
100
AcDbEntity
  8
0
100
AcDbBlockReference
  2
20514-2-0210
 10
349.1
 20
179.0
 30
0.0
  0
ENDBLK
  5
99
330
92
100
AcDbEntity
  8
0
100
AcDbBlockEnd
  0
BLOCK
  5
9D
330
9A
100
AcDbEntity
  8
0
100
AcDbBlockBegin
  2
A-A__13
 70
     0
 10
357.0
 20
211.0
 30
0.0
  3
A-A__13
  1

  0
INSERT
  5
9B
330
9A
100
AcDbEntity
  8
1
100
AcDbBlockReference
  2
X__7
 10
0.0
 20
0.0
 30
0.0
  0
INSERT
  5
9C
330
9A
100
AcDbEntity
  8
0
100
AcDbBlockReference
  2
20522-1-0101__12
 10
346.6
 20
177.5
 30
0.0
  0
CIRCLE
  5
194
330
9A
100
AcDbEntity
  8
1
  6
Continuous
 62
     7
100
AcDbCircle
 10
349.696784925654
 20
183.7784269353609
 30
0.0
 40
0.2999999999998977
  0
CIRCLE
  5
195
330
9A
100
AcDbEntity
  8
1
  6
Continuous
 62
     7
100
AcDbCircle
 10
355.7471999326229
 20
241.4441988851829
 30
0.0
 40
0.3000000000001819
  0
LWPOLYLINE
  5
196
330
9A
100
AcDbEntity
  8
1
  6
Continuous
 62
     7
 60
     1
100
AcDbPolyline
 90
        5
 70
     0
 43
0.0
 10
356.3116626735214
 20
207.6640579157424
 10
376.9616626735213
 20
207.6640579157424
 10
376.9616626735213
 20
212.9140579157424
 10
356.3116626735214
 20
212.9140579157424
 10
356.3116626735214
 20
207.6640579157424
  0
LWPOLYLINE
  5
197
330
9A
100
AcDbEntity
  8
1
  6
Continuous
 62
     7
 60
     1
100
AcDbPolyline
 90
        5
 70
     0
 43
0.0
 10
356.3116626735214
 20
207.6640579157424
 10
376.9616626735213
 20
207.6640579157424
 10
376.9616626735213
 20
212.9140579157424
 10
356.3116626735214
 20
212.9140579157424
 10
356.3116626735214
 20
207.6640579157424
  0
LEADER
  5
198
330
9A
100
AcDbEntity
  8
1
  6
Continuous
 62
     3
100
AcDbLeader
  3
Standard
 71
     0
 76
     4
 10
355.655505359491
 20
241.7298422034282
 30
0.0
 10
332.667286598947
 20
260.486730038442
 30
0.0
 10
337.492710150286
 20
286.366833482162
 30
0.0
 10
372.492710150286
 20
286.366833482162
 30
0.0
  0
LEADER
  5
199
330
9A
100
AcDbEntity
  8
1
  6
Continuous
 62
     3
100
AcDbLeader
  3
Standard
 71
     0
 76
     3
 10
349.696784925654
 20
183.478426935361
 30
0.0
 10
353.862452255128
 20
166.5421611646959
 30
0.0
 10
389.862452255128
 20
166.5421611646959
 30
0.0
  0
TEXT
  5
19A
330
9A
100
AcDbEntity
  8
1
 62
     4
100
AcDbText
 10
355.076871072776
 20
167.719515877523
 30
0.0
 40
3.5
  1
20514-2-0210
 41
0.9
  7
CONVERTER_11
100
AcDbText
  0
TEXT
  5
19B
330
9A
100
AcDbEntity
  8
1
 62
     4
100
AcDbText
 10
338.9577430746718
 20
287.380658451375
 30
0.0
 40
3.5
  1
20514-2-0211
 41
0.9
  7
CONVERTER_11
100
AcDbText
  0
MTEXT
  5
19C
330
9A
100
AcDbEntity
  8
1
 62
     1
100
AcDbMText
 10
356.2281627962835
 20
255.120977782146
 30
0.0
 40
5.0
 41
0.0
 71
     2
 72
     1
  1
A-A
  7
CONVERTER_11
 73
     1
 44
1.02040816326531
  0
MTEXT
  5
19D
330
9A
100
AcDbEntity
  8
1
 62
     4
100
AcDbMText
 10
355.421672648263
 20
137.699467960539
 30
0.0
 40
3.5
 41
0.0
 71
     7
 72
     1
  1
glatte Seite mit\PKlebus Spezial angeklebt\Poder\Pmit doppelseitigem Klebeband\PFa.Steierform 87-92404
  7
CONVERTER_12
 73
     1
 44
1.02040816326531
  0
LWPOLYLINE
  5
19E
330
9A
100
AcDbEntity
  8
1
 62
     3
100
AcDbPolyline
 90
        8
 70
     1
 43
0.0
 10
349.047001508099
 20
145.595593534139
 10
349.447001508099
 20
145.595593534139
 42
0.4142135623731
 10
351.447001508099
 20
147.595593534139
 10
351.447001508099
 20
147.595593534139
 42
0.4142135623731
 10
349.447001508099
 20
149.595593534139
 10
349.047001508099
 20
149.595593534139
 42
0.4142135623731
 10
347.047001508099
 20
147.595593534139
 10
347.047001508099
 20
147.595593534139
 42
0.4142135623731
  0
TEXT
  5
19F
330
9A
100
AcDbEntity
  8
1
 62
     3
100
AcDbText
 10
348.047001508099
 20
146.595593534139
 30
0.0
 40
2.0
  1
01
 41
0.9
  7
CONVERTER_11
100
AcDbText
  0
MTEXT
  5
1A0
330
9A
100
AcDbEntity
  8
1
 62
     4
100
AcDbMText
 10
339.443954912665
 20
257.602483797328
 30
0.0
 40
3.5
 41
0.0
 71
     7
 72
     1
  1
glatte Seite mit\PKlebus Spezial angeklebt\Poder\Pmit doppelseitigem Klebeband\PFa.Steierform 87-92404
  7
CONVERTER_12
 73
     1
 44
1.02040816326531
  0
LWPOLYLINE
  5
1A1
330
9A
100
AcDbEntity
  8
1
 62
     3
100
AcDbPolyline
 90
        8
 70
     1
 43
0.0
 10
326.805685665545
 20
262.801697091473
 10
327.205685665545
 20
262.801697091473
 42
0.4142135623731
 10
329.205685665545
 20
264.801697091473
 10
329.205685665545
 20
264.801697091473
 42
0.4142135623731
 10
327.205685665545
 20
266.801697091473
 10
326.805685665545
 20
266.801697091473
 42
0.4142135623731
 10
324.805685665545
 20
264.801697091473
 10
324.805685665545
 20
264.801697091473
 42
0.4142135623731
  0
TEXT
  5
1A2
330
9A
100
AcDbEntity
  8
1
 62
     3
100
AcDbText
 10
325.805685665545
 20
263.801697091473
 30
0.0
 40
2.0
  1
01
 41
0.9
  7
CONVERTER_11
100
AcDbText
  0
ENDBLK
  5
9E
330
9A
100
AcDbEntity
  8
0
100
AcDbBlockEnd
  0
BLOCK
  5
A0
330
9F
100
AcDbEntity
  8
0
100
AcDbBlockBegin
  2
A-A__14
 70
     0
 10
250.8999992712793
 20
156.299023929071
 30
0.0
  3
A-A__14
  1

  0
LEADER
  5
1A3
330
9F
100
AcDbEntity
  8
1
  6
Continuous
 62
     1
100
AcDbLeader
  3
Standard
 71
     0
 76
     2
 10
270.8999992712793
 20
165.049023929071
 30
0.0
 10
270.8999992712793
 20
170.049023929071
 30
0.0
  0
LEADER
  5
1A4
330
9F
100
AcDbEntity
  8
1
  6
Continuous
 62
     1
100
AcDbLeader
  3
Standard
 71
     0
 76
     2
 10
270.8999992712793
 20
203.420587105624
 30
0.0
 10
270.8999992712793
 20
198.420587105624
 30
0.0
  0
LEADER
  5
1A5
330
9F
100
AcDbEntity
  8
1
  6
Continuous
 62
     1
100
AcDbLeader
  3
Standard
 71
     0
 76
     2
 10
270.8999992712793
 20
203.420587105624
 30
0.0
 10
275.8999992712793
 20
203.420587105624
 30
0.0
  0
LEADER
  5
1A6
330
9F
100
AcDbEntity
  8
1
  6
Continuous
 62
     1
100
AcDbLeader
  3
Standard
 71
     0
 76
     2
 10
283.8999992712792
 20
203.420587105624
 30
0.0
 10
278.8999992712792
 20
203.420587105624
 30
0.0
  0
LEADER
  5
1A7
330
9F
100
AcDbEntity
  8
1
  6
Continuous
 62
     1
100
AcDbLeader
  3
Standard
 71
     0
 76
     2
 10
283.8999992712792
 20
203.420587105624
 30
0.0
 10
283.8999992712792
 20
208.420587105624
 30
0.0
  0
LEADER
  5
1A8
330
9F
100
AcDbEntity
  8
1
  6
Continuous
 62
     1
100
AcDbLeader
  3
Standard
 71
     0
 76
     2
 10
283.8999992712792
 20
255.420324954632
 30
0.0
 10
283.8999992712792
 20
250.420324954632
 30
0.0
  0
LEADER
  5
1A9
330
9F
100
AcDbEntity
  8
1
  6
Continuous
 62
     1
100
AcDbLeader
  3
Standard
 71
     0
 76
     2
 10
270.8999992712793
 20
160.049023929071
 30
0.0
 10
270.8999992712793
 20
165.049023929071
 30
0.0
  0
LEADER
  5
1AA
330
9F
100
AcDbEntity
  8
1
  6
Continuous
 62
     1
100
AcDbLeader
  3
Standard
 71
     0
 76
     2
 10
283.8999992712792
 20
260.420324954632
 30
0.0
 10
283.8999992712792
 20
255.420324954632
 30
0.0
  0
SOLID
  5
1AB
330
9F
100
AcDbEntity
  8
1
 62
     1
100
AcDbTrace
 10
260.3999992712793
 20
163.6666727044034
 30
0.0
 11
260.3999992712793
 21
166.4313751537387
 31
0.0
 12
270.8999992712793
 22
165.049023929071
 32
0.0
 13
270.8999992712793
 23
165.049023929071
 33
0.0
  0
LEADER
  5
1AC
330
9F
100
AcDbEntity
  8
1
  6
Continuous
 62
     1
100
AcDbLeader
  3
Standard
 71
     0
 76
     2
 10
270.8999992712793
 20
165.049023929071
 30
0.0
 10
250.8999992712793
 20
165.049023929071
 30
0.0
  0
SOLID
  5
1AD
330
9F
100
AcDbEntity
  8
1
 62
     1
100
AcDbTrace
 10
273.3999992712792
 20
254.0379737299644
 30
0.0
 11
273.3999992712792
 21
256.8026761792997
 31
0.0
 12
283.8999992712792
 22
255.420324954632
 32
0.0
 13
283.8999992712792
 23
255.420324954632
 33
0.0
  0
LEADER
  5
1AE
330
9F
100
AcDbEntity
  8
1
  6
Continuous
 62
     1
100
AcDbLeader
  3
Standard
 71
     0
 76
     2
 10
283.8999992712792
 20
255.420324954632
 30
0.0
 10
263.8999992712792
 20
255.420324954632
 30
0.0
  0
MTEXT
  5
1AF
330
9F
100
AcDbEntity
  8
1
 62
     1
100
AcDbMText
 10
270.8999996978572
 20
158.049023929071
 30
0.0
 40
5.0
 41
0.0
 71
     2
 72
     1
  1
A
  7
CONVERTER_11
 73
     1
 44
1.02040816326531
  0
MTEXT
  5
1B0
330
9F
100
AcDbEntity
  8
1
 62
     1
100
AcDbMText
 10
283.8999996978572
 20
267.59982088131
 30
0.0
 40
5.0
 41
0.0
 71
     2
 72
     1
  1
A
  7
CONVERTER_11
 73
     1
 44
1.02040816326531
  0
ENDBLK
  5
A1
330
9F
100
AcDbEntity
  8
0
100
AcDbBlockEnd
  0
BLOCK
  5
A3
330
A2
100
AcDbEntity
  8
0
100
AcDbBlockBegin
  2
20511-2-0214_1__15
 70
     0
 10
275.3999992712792
 20
223.0
 30
0.0
  3
20511-2-0214_1__15
  1

  0
LINE
  5
1B1
330
A2
100
AcDbEntity
  8
0
  6
Continuous
 62
     1
100
AcDbLine
 10
286.8999992712792
 20
233.2320508075689
 30
0.0
 11
286.8999992712792
 21
229.7679491924311
 31
0.0
  0
LINE
  5
1B2
330
A2
100
AcDbEntity
  8
0
  6
Continuous
 62
     1
100
AcDbLine
 10
283.8999992712792
 20
234.9641016151378
 30
0.0
 11
286.8999992712792
 21
233.2320508075689
 31
0.0
  0
LINE
  5
1B3
330
A2
100
AcDbEntity
  8
0
  6
Continuous
 62
     1
100
AcDbLine
 10
280.8999992712792
 20
233.2320508075689
 30
0.0
 11
283.8999992712792
 21
234.9641016151378
 31
0.0
  0
LINE
  5
1B4
330
A2
100
AcDbEntity
  8
0
  6
Continuous
 62
     1
100
AcDbLine
 10
283.8999992712792
 20
228.0358983848622
 30
0.0
 11
280.8999992712792
 21
229.7679491924311
 31
0.0
  0
LINE
  5
1B5
330
A2
100
AcDbEntity
  8
0
  6
Continuous
 62
     1
100
AcDbLine
 10
280.8999992712792
 20
229.7679491924311
 30
0.0
 11
280.8999992712792
 21
233.2320508075689
 31
0.0
  0
LINE
  5
1B6
330
A2
100
AcDbEntity
  8
0
  6
Continuous
 62
     1
100
AcDbLine
 10
286.8999992712792
 20
229.7679491924311
 30
0.0
 11
283.8999992712792
 21
228.0358983848622
 31
0.0
  0
CIRCLE
  5
1B7
330
A2
100
AcDbEntity
  8
0
  6
Continuous
 62
     4
100
AcDbCircle
 10
283.8999992712792
 20
231.5
 30
0.0
 40
8.5
  0
ENDBLK
  5
A4
330
A2
100
AcDbEntity
  8
0
100
AcDbBlockEnd
  0
BLOCK
  5
A6
330
A5
100
AcDbEntity
  8
0
100
AcDbBlockBegin
  2
20511-2-0214
 70
     0
 10
115.3999992712793
 20
223.0
 30
0.0
  3
20511-2-0214
  1

  0
LINE
  5
1B8
330
A5
100
AcDbEntity
  8
0
  6
Continuous
 62
     1
100
AcDbLine
 10
123.8999992712793
 20
228.0358983848622
 30
0.0
 11
120.8999992712793
 21
229.7679491924311
 31
0.0
  0
LINE
  5
1B9
330
A5
100
AcDbEntity
  8
0
  6
Continuous
 62
     1
100
AcDbLine
 10
126.8999992712793
 20
229.7679491924311
 30
0.0
 11
123.8999992712793
 21
228.0358983848622
 31
0.0
  0
LINE
  5
1BA
330
A5
100
AcDbEntity
  8
0
  6
Continuous
 62
     1
100
AcDbLine
 10
123.8999992712793
 20
234.9641016151378
 30
0.0
 11
126.8999992712793
 21
233.2320508075689
 31
0.0
  0
LINE
  5
1BB
330
A5
100
AcDbEntity
  8
0
  6
Continuous
 62
     1
100
AcDbLine
 10
120.8999992712793
 20
233.2320508075689
 30
0.0
 11
123.8999992712793
 21
234.9641016151378
 31
0.0
  0
LINE
  5
1BC
330
A5
100
AcDbEntity
  8
0
  6
Continuous
 62
     1
100
AcDbLine
 10
120.8999992712793
 20
229.7679491924311
 30
0.0
 11
120.8999992712793
 21
233.2320508075689
 31
0.0
  0
LINE
  5
1BD
330
A5
100
AcDbEntity
  8
0
  6
Continuous
 62
     1
100
AcDbLine
 10
126.8999992712793
 20
233.2320508075689
 30
0.0
 11
126.8999992712793
 21
229.7679491924311
 31
0.0
  0
CIRCLE
  5
1BE
330
A5
100
AcDbEntity
  8
0
  6
Continuous
 62
     4
100
AcDbCircle
 10
123.8999992712793
 20
231.5
 30
0.0
 40
8.5
  0
ENDBLK
  5
A7
330
A5
100
AcDbEntity
  8
0
100
AcDbBlockEnd
  0
BLOCK
  5
A9
330
A8
100
AcDbEntity
  8
0
100
AcDbBlockBegin
  2
20522-2-0228__16
 70
     0
 10
90.89999927127926
 20
177.5
 30
0.0
  3
20522-2-0228__16
  1

  0
LINE
  5
1BF
330
A8
100
AcDbEntity
  8
0
  6
Continuous
 62
     1
100
AcDbLine
 10
316.8999992712792
 20
233.5
 30
0.0
 11
316.8999992712792
 21
225.5
 31
0.0
  0
LINE
  5
1C0
330
A8
100
AcDbEntity
  8
0
  6
Continuous
 62
     1
100
AcDbLine
 10
316.8999992712792
 20
189.5
 30
0.0
 11
316.8999992712792
 21
181.5
 31
0.0
  0
LINE
  5
1C1
330
A8
100
AcDbEntity
  8
0
  6
Continuous
 62
     1
100
AcDbLine
 10
90.89999927127926
 20
181.5
 30
0.0
 11
90.89999927127926
 21
189.5
 31
0.0
  0
LINE
  5
1C2
330
A8
100
AcDbEntity
  8
0
  6
Continuous
 62
     1
100
AcDbLine
 10
90.89999927127926
 20
189.5
 30
0.0
 11
90.89999927127926
 21
225.5
 31
0.0
  0
LINE
  5
1C3
330
A8
100
AcDbEntity
  8
0
  6
Continuous
 62
     1
100
AcDbLine
 10
90.89999927127926
 20
225.5
 30
0.0
 11
90.89999927127926
 21
233.5
 31
0.0
  0
LINE
  5
1C4
330
A8
100
AcDbEntity
  8
0
  6
Continuous
 62
     1
100
AcDbLine
 10
90.89999927127926
 20
233.5
 30
0.0
 11
90.89999927127926
 21
244.5
 31
0.0
  0
LINE
  5
1C5
330
A8
100
AcDbEntity
  8
0
  6
Continuous
 62
     1
100
AcDbLine
 10
316.8999992712792
 20
244.5
 30
0.0
 11
316.8999992712792
 21
233.5
 31
0.0
  0
LINE
  5
1C6
330
A8
100
AcDbEntity
  8
0
  6
Continuous
 62
     1
100
AcDbLine
 10
316.8999992712792
 20
225.5
 30
0.0
 11
316.8999992712792
 21
189.5
 31
0.0
  0
LINE
  5
1C7
330
A8
100
AcDbEntity
  8
0
  6
Continuous
 62
     1
100
AcDbLine
 10
290.0541868699797
 20
225.5
 30
0.0
 11
316.8999992712792
 21
225.5
 31
0.0
  0
LINE
  5
1C8
330
A8
100
AcDbEntity
  8
0
  6
Continuous
 62
     1
100
AcDbLine
 10
292.2590677002372
 20
233.5
 30
0.0
 11
316.8999992712792
 21
233.5
 31
0.0
  0
LINE
  5
1C9
330
A8
100
AcDbEntity
  8
0
  6
Continuous
 62
     1
100
AcDbLine
 10
90.89999927127926
 20
181.5
 30
0.0
 11
316.8999992712792
 21
181.5
 31
0.0
  0
LINE
  5
1CA
330
A8
100
AcDbEntity
  8
0
  6
Continuous
 62
     1
100
AcDbLine
 10
130.0541868699799
 20
225.5
 30
0.0
 11
277.7458116725787
 21
225.5
 31
0.0
  0
LINE
  5
1CB
330
A8
100
AcDbEntity
  8
0
  6
Continuous
 62
     1
100
AcDbLine
 10
90.89999927127926
 20
233.5
 30
0.0
 11
115.5409308423214
 21
233.5
 31
0.0
  0
LINE
  5
1CC
330
A8
100
AcDbEntity
  8
0
  6
Continuous
 62
     1
100
AcDbLine
 10
132.2590677002371
 20
233.5
 30
0.0
 11
275.5409308423214
 21
233.5
 31
0.0
  0
LINE
  5
1CD
330
A8
100
AcDbEntity
  8
0
  6
Continuous
 62
     1
100
AcDbLine
 10
90.89999927127926
 20
244.5
 30
0.0
 11
316.8999992712792
 21
244.5
 31
0.0
  0
LINE
  5
1CE
330
A8
100
AcDbEntity
  8
0
  6
Continuous
 62
     1
100
AcDbLine
 10
90.89999927127926
 20
225.5
 30
0.0
 11
117.7458116725787
 21
225.5
 31
0.0
  0
LINE
  5
1CF
330
A8
100
AcDbEntity
  8
0
  6
Continuous
 62
     1
100
AcDbLine
 10
90.89999927127926
 20
189.5
 30
0.0
 11
316.8999992712792
 21
189.5
 31
0.0
  0
LINE
  5
1D0
330
A8
100
AcDbEntity
  8
0
  6
Continuous
 62
     1
100
AcDbLine
 10
316.8999992712792
 20
181.5
 30
0.0
 11
316.8999992712792
 21
177.5
 31
0.0
  0
LINE
  5
1D1
330
A8
100
AcDbEntity
  8
0
  6
Continuous
 62
     1
100
AcDbLine
 10
90.89999927127926
 20
177.5
 30
0.0
 11
90.89999927127926
 21
181.5
 31
0.0
  0
LINE
  5
1D2
330
A8
100
AcDbEntity
  8
0
  6
Continuous
 62
     1
100
AcDbLine
 10
90.89999927127926
 20
177.5
 30
0.0
 11
316.8999992712792
 21
177.5
 31
0.0
  0
LINE
  5
1D3
330
A8
100
AcDbEntity
  8
1
  6
DASH_CENTER
 62
     3
100
AcDbLine
 10
297.3999996978572
 20
231.5
 30
0.0
 11
270.3999996978572
 21
231.5
 31
0.0
  0
LINE
  5
1D4
330
A8
100
AcDbEntity
  8
1
  6
DASH_CENTER
 62
     3
100
AcDbLine
 10
283.8999996978572
 20
245.0
 30
0.0
 11
283.8999996978572
 21
218.0
 31
0.0
  0
LINE
  5
1D5
330
A8
100
AcDbEntity
  8
1
  6
DASH_CENTER
 62
     3
100
AcDbLine
 10
300.6499996978572
 20
185.5
 30
0.0
 11
293.1499996978572
 21
185.5
 31
0.0
  0
LINE
  5
1D6
330
A8
100
AcDbEntity
  8
1
  6
DASH_CENTER
 62
     3
100
AcDbLine
 10
296.8999996978572
 20
189.25
 30
0.0
 11
296.8999996978572
 21
181.75
 31
0.0
  0
LINE
  5
1D7
330
A8
100
AcDbEntity
  8
1
  6
DASH_CENTER
 62
     3
100
AcDbLine
 10
273.9974992712793
 20
185.5
 30
0.0
 11
267.8024992712793
 21
185.5
 31
0.0
  0
LINE
  5
1D8
330
A8
100
AcDbEntity
  8
1
  6
DASH_CENTER
 62
     3
100
AcDbLine
 10
270.8999992712793
 20
188.5975
 30
0.0
 11
270.8999992712793
 21
182.4025
 31
0.0
  0
LINE
  5
1D9
330
A8
100
AcDbEntity
  8
1
  6
DASH_CENTER
 62
     3
100
AcDbLine
 10
248.9974992712793
 20
185.5
 30
0.0
 11
242.8024992712793
 21
185.5
 31
0.0
  0
LINE
  5
1DA
330
A8
100
AcDbEntity
  8
1
  6
DASH_CENTER
 62
     3
100
AcDbLine
 10
245.8999992712793
 20
188.5975
 30
0.0
 11
245.8999992712793
 21
182.4025
 31
0.0
  0
LINE
  5
1DB
330
A8
100
AcDbEntity
  8
1
  6
DASH_CENTER
 62
     3
100
AcDbLine
 10
248.9974992712793
 20
229.5
 30
0.0
 11
242.8024992712793
 21
229.5
 31
0.0
  0
LINE
  5
1DC
330
A8
100
AcDbEntity
  8
1
  6
DASH_CENTER
 62
     3
100
AcDbLine
 10
245.8999992712793
 20
232.5975
 30
0.0
 11
245.8999992712793
 21
226.4025
 31
0.0
  0
LINE
  5
1DD
330
A8
100
AcDbEntity
  8
1
  6
DASH_CENTER
 62
     3
100
AcDbLine
 10
165.6499996978572
 20
229.5
 30
0.0
 11
158.1499996978572
 21
229.5
 31
0.0
  0
LINE
  5
1DE
330
A8
100
AcDbEntity
  8
1
  6
DASH_CENTER
 62
     3
100
AcDbLine
 10
161.8999996978572
 20
233.25
 30
0.0
 11
161.8999996978572
 21
225.75
 31
0.0
  0
LINE
  5
1DF
330
A8
100
AcDbEntity
  8
1
  6
DASH_CENTER
 62
     3
100
AcDbLine
 10
165.6499996978572
 20
185.5
 30
0.0
 11
158.1499996978572
 21
185.5
 31
0.0
  0
LINE
  5
1E0
330
A8
100
AcDbEntity
  8
1
  6
DASH_CENTER
 62
     3
100
AcDbLine
 10
161.8999996978572
 20
189.25
 30
0.0
 11
161.8999996978572
 21
181.75
 31
0.0
  0
LINE
  5
1E1
330
A8
100
AcDbEntity
  8
1
  6
DASH_CENTER
 62
     3
100
AcDbLine
 10
139.9974992712793
 20
229.5
 30
0.0
 11
133.8024992712793
 21
229.5
 31
0.0
  0
LINE
  5
1E2
330
A8
100
AcDbEntity
  8
1
  6
DASH_CENTER
 62
     3
100
AcDbLine
 10
136.8999992712793
 20
232.5975
 30
0.0
 11
136.8999992712793
 21
226.4025
 31
0.0
  0
LINE
  5
1E3
330
A8
100
AcDbEntity
  8
1
  6
DASH_CENTER
 62
     3
100
AcDbLine
 10
113.9974992712793
 20
229.5
 30
0.0
 11
107.8024992712793
 21
229.5
 31
0.0
  0
LINE
  5
1E4
330
A8
100
AcDbEntity
  8
1
  6
DASH_CENTER
 62
     3
100
AcDbLine
 10
110.8999992712793
 20
232.5975
 30
0.0
 11
110.8999992712793
 21
226.4025
 31
0.0
  0
LINE
  5
1E5
330
A8
100
AcDbEntity
  8
1
  6
DASH_CENTER
 62
     3
100
AcDbLine
 10
137.3999996978572
 20
231.5
 30
0.0
 11
110.3999996978572
 21
231.5
 31
0.0
  0
LINE
  5
1E6
330
A8
100
AcDbEntity
  8
1
  6
DASH_CENTER
 62
     3
100
AcDbLine
 10
123.8999996978572
 20
245.0
 30
0.0
 11
123.8999996978572
 21
218.0
 31
0.0
  0
ARC
  5
1E7
330
A8
100
AcDbEntity
  8
0
  6
Continuous
 62
     4
100
AcDbCircle
 10
283.8999992712792
 20
231.5
 30
0.0
 40
8.595000000000121
100
AcDbArc
 50
13.45569705834033
 51
166.5443029416594
  0
ARC
  5
1E8
330
A8
100
AcDbEntity
  8
0
  6
Continuous
 62
     4
100
AcDbCircle
 10
283.8999992712792
 20
231.5
 30
0.0
 40
8.594999999999905
100
AcDbArc
 50
315.7268132666756
 51
13.45569705834033
  0
ARC
  5
1E9
330
A8
100
AcDbEntity
  8
0
  6
Continuous
 62
     4
100
AcDbCircle
 10
123.8999992712793
 20
231.5
 30
0.0
 40
8.595000000000017
100
AcDbArc
 50
224.2731867333236
 51
315.7268132666763
  0
ARC
  5
1EA
330
A8
100
AcDbEntity
  8
0
  6
Continuous
 62
     4
100
AcDbCircle
 10
283.8999992712792
 20
231.5
 30
0.0
 40
8.594999999999946
100
AcDbArc
 50
224.2731867333241
 51
315.7268132666756
  0
ARC
  5
1EB
330
A8
100
AcDbEntity
  8
0
  6
Continuous
 62
     4
100
AcDbCircle
 10
123.8999992712793
 20
231.5
 30
0.0
 40
8.594999999999942
100
AcDbArc
 50
13.45569705834062
 51
166.5443029416595
  0
ARC
  5
1EC
330
A8
100
AcDbEntity
  8
0
  6
Continuous
 62
     4
100
AcDbCircle
 10
123.8999992712793
 20
231.5
 30
0.0
 40
8.595000000000038
100
AcDbArc
 50
166.5443029416595
 51
224.2731867333236
  0
ARC
  5
1ED
330
A8
100
AcDbEntity
  8
0
  6
Continuous
 62
     4
100
AcDbCircle
 10
283.8999992712792
 20
231.5
 30
0.0
 40
8.594999999999954
100
AcDbArc
 50
166.5443029416594
 51
224.2731867333241
  0
ARC
  5
1EE
330
A8
100
AcDbEntity
  8
0
  6
Continuous
 62
     4
100
AcDbCircle
 10
123.8999992712793
 20
231.5
 30
0.0
 40
8.595000000000017
100
AcDbArc
 50
315.7268132666763
 51
13.45569705834062
  0
ARC
  5
1EF
330
A8
100
AcDbEntity
  8
1
  6
Continuous
 62
     3
100
AcDbCircle
 10
283.8999996978572
 20
231.5
 30
0.0
 40
9.0
100
AcDbArc
 50
180.0
 51
90.0
  0
ARC
  5
1F0
330
A8
100
AcDbEntity
  8
1
  6
Continuous
 62
     3
100
AcDbCircle
 10
123.8999996978572
 20
231.5
 30
0.0
 40
9.0
100
AcDbArc
 50
180.0
 51
90.0
  0
ARC
  5
1F1
330
A8
100
AcDbEntity
  8
1
  6
Continuous
 62
     3
100
AcDbCircle
 10
270.8999996978572
 20
185.5
 30
0.0
 40
2.5
100
AcDbArc
 50
180.0
 51
90.0
  0
ARC
  5
1F2
330
A8
100
AcDbEntity
  8
1
  6
Continuous
 62
     3
100
AcDbCircle
 10
110.8999996978572
 20
229.5
 30
0.0
 40
2.5
100
AcDbArc
 50
180.0
 51
90.0
  0
ARC
  5
1F3
330
A8
100
AcDbEntity
  8
1
  6
Continuous
 62
     3
100
AcDbCircle
 10
245.8999996978572
 20
229.5
 30
0.0
 40
2.5
100
AcDbArc
 50
180.0
 51
90.0
  0
ARC
  5
1F4
330
A8
100
AcDbEntity
  8
1
  6
Continuous
 62
     3
100
AcDbCircle
 10
245.8999996978572
 20
185.5
 30
0.0
 40
2.5
100
AcDbArc
 50
180.0
 51
90.0
  0
ARC
  5
1F5
330
A8
100
AcDbEntity
  8
1
  6
Continuous
 62
     3
100
AcDbCircle
 10
161.8999996978572
 20
185.5
 30
0.0
 40
2.5
100
AcDbArc
 50
180.0
 51
90.0
  0
ARC
  5
1F6
330
A8
100
AcDbEntity
  8
1
  6
Continuous
 62
     3
100
AcDbCircle
 10
161.8999996978572
 20
229.5
 30
0.0
 40
2.5
100
AcDbArc
 50
180.0
 51
90.0
  0
ARC
  5
1F7
330
A8
100
AcDbEntity
  8
1
  6
Continuous
 62
     3
100
AcDbCircle
 10
296.8999996978572
 20
185.5
 30
0.0
 40
2.5
100
AcDbArc
 50
180.0
 51
90.0
  0
ARC
  5
1F8
330
A8
100
AcDbEntity
  8
1
  6
Continuous
 62
     3
100
AcDbCircle
 10
136.8999996978572
 20
229.5
 30
0.0
 40
2.5
100
AcDbArc
 50
180.0
 51
90.0
  0
CIRCLE
  5
1F9
330
A8
100
AcDbEntity
  8
0
  6
Continuous
 62
     4
100
AcDbCircle
 10
110.8999992712793
 20
229.5
 30
0.0
 40
2.064999999999998
  0
CIRCLE
  5
1FA
330
A8
100
AcDbEntity
  8
0
  6
Continuous
 62
     4
100
AcDbCircle
 10
245.8999992712793
 20
229.5
 30
0.0
 40
2.064999999999998
  0
CIRCLE
  5
1FB
330
A8
100
AcDbEntity
  8
0
  6
Continuous
 62
     4
100
AcDbCircle
 10
161.8999992712793
 20
229.5
 30
0.0
 40
2.064999999999998
  0
CIRCLE
  5
1FC
330
A8
100
AcDbEntity
  8
0
  6
Continuous
 62
     4
100
AcDbCircle
 10
136.8999992712793
 20
229.5
 30
0.0
 40
2.064999999999998
  0
CIRCLE
  5
1FD
330
A8
100
AcDbEntity
  8
0
  6
Continuous
 62
     4
100
AcDbCircle
 10
296.8999992712792
 20
185.5
 30
0.0
 40
2.065000000000055
  0
CIRCLE
  5
1FE
330
A8
100
AcDbEntity
  8
0
  6
Continuous
 62
     4
100
AcDbCircle
 10
161.8999992712793
 20
185.5
 30
0.0
 40
2.064999999999998
  0
CIRCLE
  5
1FF
330
A8
100
AcDbEntity
  8
0
  6
Continuous
 62
     4
100
AcDbCircle
 10
245.8999992712793
 20
185.5
 30
0.0
 40
2.064999999999998
  0
CIRCLE
  5
200
330
A8
100
AcDbEntity
  8
0
  6
Continuous
 62
     4
100
AcDbCircle
 10
270.8999992712793
 20
185.5
 30
0.0
 40
2.064999999999998
  0
ENDBLK
  5
AA
330
A8
100
AcDbEntity
  8
0
100
AcDbBlockEnd
  0
BLOCK
  5
AF
330
AB
100
AcDbEntity
  8
0
100
AcDbBlockBegin
  2
20522-1-0101__17
 70
     0
 10
90.89999927127926
 20
177.5
 30
0.0
  3
20522-1-0101__17
  1

  0
INSERT
  5
AC
330
AB
100
AcDbEntity
  8
0
100
AcDbBlockReference
  2
20511-2-0214_1__15
 10
275.3999992712792
 20
223.0
 30
0.0
  0
INSERT
  5
AD
330
AB
100
AcDbEntity
  8
0
100
AcDbBlockReference
  2
20511-2-0214
 10
115.3999992712793
 20
223.0
 30
0.0
  0
INSERT
  5
AE
330
AB
100
AcDbEntity
  8
0
100
AcDbBlockReference
  2
20522-2-0228__16
 10
90.89999927127926
 20
177.5
 30
0.0
  0
ENDBLK
  5
B0
330
AB
100
AcDbEntity
  8
0
100
AcDbBlockEnd
  0
BLOCK
  5
B4
330
B1
100
AcDbEntity
  8
0
100
AcDbBlockBegin
  2
Vordans1
 70
     0
 10
213.8999992712793
 20
211.0
 30
0.0
  3
Vordans1
  1

  0
INSERT
  5
B2
330
B1
100
AcDbEntity
  8
1
100
AcDbBlockReference
  2
A-A__14
 10
250.8999992712793
 20
156.299023929071
 30
0.0
  0
INSERT
  5
B3
330
B1
100
AcDbEntity
  8
0
100
AcDbBlockReference
  2
20522-1-0101__17
 10
90.89999927127926
 20
177.5
 30
0.0
  0
CIRCLE
  5
201
330
B1
100
AcDbEntity
  8
1
  6
Continuous
 62
     7
100
AcDbCircle
 10
133.195540174827
 20
185.321280321963
 30
0.0
 40
0.3000000000000114
  0
CIRCLE
  5
202
330
B1
100
AcDbEntity
  8
1
  6
Continuous
 62
     7
100
AcDbCircle
 10
127.101782785166
 20
236.494139711041
 30
0.0
 40
0.3000000000000114
  0
LEADER
  5
203
330
B1
100
AcDbEntity
  8
1
  6
Continuous
 62
     3
100
AcDbLeader
  3
Standard
 71
     0
 76
     3
 10
127.269708351109
 20
236.7427377888749
 30
0.0
 10
137.758888953221
 20
256.239945469112
 30
0.0
 10
173.758888953221
 20
256.239945469112
 30
0.0
  0
LEADER
  5
204
330
B1
100
AcDbEntity
  8
1
  6
Continuous
 62
     3
100
AcDbLeader
  3
Standard
 71
     0
 76
     3
 10
133.0885713785947
 20
185.0409988979752
 30
0.0
 10
120.8967772693831
 20
165.275037041381
 30
0.0
 10
82.87164513555317
 20
165.275037041381
 30
0.0
  0
TEXT
  5
205
330
B1
100
AcDbEntity
  8
1
 62
     4
100
AcDbText
 10
83.73451506371418
 20
166.9136025585684
 30
0.0
 40
3.5
  1
20522-2-0228
 41
0.9
  7
CONVERTER_11
100
AcDbText
  0
TEXT
  5
206
330
B1
100
AcDbEntity
  8
1
 62
     4
100
AcDbText
 10
140.672826014495
 20
257.487863225405
 30
0.0
 40
3.5
  1
20511-2-0214
 41
0.9
  7
CONVERTER_11
100
AcDbText
  0
ENDBLK
  5
B5
330
B1
100
AcDbEntity
  8
0
100
AcDbBlockEnd
  0
BLOCK
  5
B7
330
B6
100
AcDbEntity
  8
0
100
AcDbBlockBegin
  2
a3gr
 70
     0
 10
38.34904571593003
 20
34.58378872697199
 30
0.0
  3
a3gr
  1

  0
POINT
  5
207
330
B6
100
AcDbEntity
  8
1
 62
     3
 60
     1
100
AcDbPoint
 10
376.6090760663761
 20
32.99984499100472
 30
0.0
  0
POINT
  5
208
330
B6
100
AcDbEntity
  8
1
 62
     3
 60
     1
100
AcDbPoint
 10
376.6090760663761
 20
28.11939187659585
 30
0.0
  0
POINT
  5
209
330
B6
100
AcDbEntity
  8
1
 62
     3
 60
     1
100
AcDbPoint
 10
379.2537908825642
 20
30.54189436348599
 30
0.0
  0
POINT
  5
20A
330
B6
100
AcDbEntity
  8
1
 62
     3
 60
     1
100
AcDbPoint
 10
374.1006867561771
 20
30.54189436348599
 30
0.0
  0
POINT
  5
20B
330
B6
100
AcDbEntity
  8
1
 62
     3
 60
     1
100
AcDbPoint
 10
376.6090760663761
 20
30.54189436348599
 30
0.0
  0
POINT
  5
20C
330
B6
100
AcDbEntity
  8
1
 62
     3
 60
     1
100
AcDbPoint
 10
370.3926329932743
 20
30.54189436348599
 30
0.0
  0
POINT
  5
20D
330
B6
100
AcDbEntity
  8
1
 62
     3
 60
     1
100
AcDbPoint
 10
361.9949818243472
 20
30.54189436348599
 30
0.0
  0
POINT
  5
20E
330
B6
100
AcDbEntity
  8
1
 62
     3
 60
     1
100
AcDbPoint
 10
362.7078239300535
 20
29.54189436348599
 30
0.0
  0
POINT
  5
20F
330
B6
100
AcDbEntity
  8
1
 62
     3
 60
     1
100
AcDbPoint
 10
362.7078239300535
 20
31.54189436348599
 30
0.0
  0
POINT
  5
210
330
B6
100
AcDbEntity
  8
1
 62
     3
 60
     1
100
AcDbPoint
 10
384.674522857965
 20
33.29189436348599
 30
0.0
  0
POINT
  5
211
330
B6
100
AcDbEntity
  8
1
 62
     3
 60
     1
100
AcDbPoint
 10
357.674522857965
 20
33.29189436348599
 30
0.0
  0
POINT
  5
212
330
B6
100
AcDbEntity
  8
1
 62
     3
 60
     1
100
AcDbPoint
 10
186.674522857965
 20
32.79189436348599
 30
0.0
  0
POINT
  5
213
330
B6
100
AcDbEntity
  8
1
 62
     3
 60
     1
100
AcDbPoint
 10
147.353012673233
 20
32.79189436348599
 30
0.0
  0
LINE
  5
214
330
B6
100
AcDbEntity
  8
0
  6
Continuous
 62
     3
100
AcDbLine
 10
250.674522857965
 20
51.79189436348599
 30
0.0
 11
260.674522857965
 21
51.79189436348599
 31
0.0
  0
LINE
  5
215
330
B6
100
AcDbEntity
  8
0
  6
Continuous
 62
     3
100
AcDbLine
 10
242.674522857965
 20
51.79189436348599
 30
0.0
 11
250.674522857965
 21
51.79189436348599
 31
0.0
  0
LINE
  5
216
330
B6
100
AcDbEntity
  8
0
  6
Continuous
 62
     3
100
AcDbLine
 10
234.674522857965
 20
51.79189436348599
 30
0.0
 11
242.674522857965
 21
51.79189436348599
 31
0.0
  0
LINE
  5
217
330
B6
100
AcDbEntity
  8
0
  6
Continuous
 62
     2
100
AcDbLine
 10
226.674522857965
 20
46.29189436348599
 30
0.0
 11
226.674522857965
 21
64.791894363486
 31
0.0
  0
LINE
  5
218
330
B6
100
AcDbEntity
  8
0
  6
Continuous
 62
     3
100
AcDbLine
 10
186.674522857965
 20
51.79189436348599
 30
0.0
 11
226.674522857965
 21
51.79189436348599
 31
0.0
  0
LINE
  5
219
330
B6
100
AcDbEntity
  8
0
  6
Continuous
 62
     3
100
AcDbLine
 10
186.674522857965
 20
49.04189436348599
 30
0.0
 11
226.674522857965
 21
49.04189436348599
 31
0.0
  0
LINE
  5
21A
330
B6
100
AcDbEntity
  8
0
  6
Continuous
 62
     3
100
AcDbLine
 10
226.674522857965
 20
51.79189436348599
 30
0.0
 11
234.674522857965
 21
51.79189436348599
 31
0.0
  0
LINE
  5
21B
330
B6
100
AcDbEntity
  8
0
  6
Continuous
 62
     3
100
AcDbLine
 10
226.674522857965
 20
49.04189436348599
 30
0.0
 11
260.674522857965
 21
49.04189436348599
 31
0.0
  0
LINE
  5
21C
330
B6
100
AcDbEntity
  8
0
  6
Continuous
 62
     3
100
AcDbLine
 10
235.174522857965
 20
51.79189436348599
 30
0.0
 11
235.174522857965
 21
46.29189436348599
 31
0.0
  0
LINE
  5
21D
330
B6
100
AcDbEntity
  8
0
  6
Continuous
 62
     3
100
AcDbLine
 10
243.674522857965
 20
46.29189436348599
 30
0.0
 11
243.674522857965
 21
51.79189436348599
 31
0.0
  0
LINE
  5
21E
330
B6
100
AcDbEntity
  8
0
  6
Continuous
 62
     3
100
AcDbLine
 10
252.174522857965
 20
51.79189436348599
 30
0.0
 11
252.174522857965
 21
46.29189436348599
 31
0.0
  0
LINE
  5
21F
330
B6
100
AcDbEntity
  8
0
  6
Continuous
 62
     3
100
AcDbLine
 10
194.674522857965
 20
51.79189436348599
 30
0.0
 11
194.674522857965
 21
46.29189436348599
 31
0.0
  0
LINE
  5
220
330
B6
100
AcDbEntity
  8
0
  6
Continuous
 62
     3
100
AcDbLine
 10
202.674522857965
 20
51.79189436348599
 30
0.0
 11
202.674522857965
 21
46.29189436348599
 31
0.0
  0
LINE
  5
221
330
B6
100
AcDbEntity
  8
0
  6
Continuous
 62
     3
100
AcDbLine
 10
210.674522857965
 20
51.79189436348599
 30
0.0
 11
210.674522857965
 21
46.29189436348599
 31
0.0
  0
LINE
  5
222
330
B6
100
AcDbEntity
  8
0
  6
Continuous
 62
     3
100
AcDbLine
 10
218.674522857965
 20
51.79189436348599
 30
0.0
 11
218.674522857965
 21
46.29189436348599
 31
0.0
  0
LINE
  5
223
330
B6
100
AcDbEntity
  8
0
  6
Continuous
 62
     2
100
AcDbLine
 10
186.674522857965
 20
46.29189436348599
 30
0.0
 11
186.674522857965
 21
64.791894363486
 31
0.0
  0
LINE
  5
224
330
B6
100
AcDbEntity
  8
0
  6
Continuous
 62
     2
100
AcDbLine
 10
186.674522857965
 20
64.791894363486
 30
0.0
 11
260.674522857965
 21
64.791894363486
 31
0.0
  0
LINE
  5
225
330
B6
100
AcDbEntity
  8
1
  6
Continuous
 62
     2
100
AcDbLine
 10
210.5745168579651
 20
46.29189436348599
 30
0.0
 11
207.624519857965
 21
46.29189436348599
 31
0.0
  0
LINE
  5
226
330
B6
100
AcDbEntity
  8
1
  6
Continuous
 62
     2
100
AcDbLine
 10
203.5745168579651
 20
46.29189436348599
 30
0.0
 11
202.349518357965
 21
46.29189436348599
 31
0.0
  0
LINE
  5
227
330
B6
100
AcDbEntity
  8
1
  6
Continuous
 62
     2
100
AcDbLine
 10
198.5745168579651
 20
46.29189436348599
 30
0.0
 11
197.0745168579651
 21
46.29189436348599
 31
0.0
  0
LINE
  5
228
330
B6
100
AcDbEntity
  8
1
  6
Continuous
 62
     2
100
AcDbLine
 10
197.0745168579651
 20
46.29189436348599
 30
0.0
 11
186.674522857965
 21
46.29189436348599
 31
0.0
  0
LINE
  5
229
330
B6
100
AcDbEntity
  8
1
  6
Continuous
 62
     2
100
AcDbLine
 10
186.674522857965
 20
46.29189436348599
 30
0.0
 11
186.674522857965
 21
32.79189436348599
 31
0.0
  0
LINE
  5
22A
330
B6
100
AcDbEntity
  8
1
  6
Continuous
 62
     2
100
AcDbLine
 10
218.174522857965
 20
46.29189436348599
 30
0.0
 11
212.899521357965
 21
46.29189436348599
 31
0.0
  0
LINE
  5
22B
330
B6
100
AcDbEntity
  8
0
  6
Continuous
 62
     3
100
AcDbLine
 10
197.0745168579651
 20
46.29189436348599
 30
0.0
 11
197.0745168579651
 21
27.79189436348599
 31
0.0
  0
LINE
  5
22C
330
B6
100
AcDbEntity
  8
0
  6
Continuous
 62
     3
100
AcDbLine
 10
202.349518357965
 20
27.79189436348599
 30
0.0
 11
202.349518357965
 21
46.29189436348599
 31
0.0
  0
LINE
  5
22D
330
B6
100
AcDbEntity
  8
0
  6
Continuous
 62
     3
100
AcDbLine
 10
207.624519857965
 20
46.29189436348599
 30
0.0
 11
207.624519857965
 21
27.79189436348598
 31
0.0
  0
LINE
  5
22E
330
B6
100
AcDbEntity
  8
0
  6
Continuous
 62
     3
100
AcDbLine
 10
212.899521357965
 20
27.79189436348599
 30
0.0
 11
212.899521357965
 21
46.29189436348599
 31
0.0
  0
LINE
  5
22F
330
B6
100
AcDbEntity
  8
0
  6
Continuous
 62
     3
100
AcDbLine
 10
218.174522857965
 20
37.04189436348599
 30
0.0
 11
186.674522857965
 21
37.04189436348599
 31
0.0
  0
LINE
  5
230
330
B6
100
AcDbEntity
  8
0
  6
Continuous
 62
     3
100
AcDbLine
 10
218.174522857965
 20
33.29189436348599
 30
0.0
 11
260.674522857965
 21
33.29189436348599
 31
0.0
  0
LINE
  5
231
330
B6
100
AcDbEntity
  8
0
  6
Continuous
 62
     3
100
AcDbLine
 10
244.174522857965
 20
33.29189436348599
 30
0.0
 11
244.174522857965
 21
27.79189436348599
 31
0.0
  0
LINE
  5
232
330
B6
100
AcDbEntity
  8
0
  6
Continuous
 62
     3
100
AcDbLine
 10
252.174522857965
 20
33.29189436348599
 30
0.0
 11
252.174522857965
 21
27.79189436348599
 31
0.0
  0
LINE
  5
233
330
B6
100
AcDbEntity
  8
0
  6
Continuous
 62
     3
100
AcDbLine
 10
235.674522857965
 20
33.29189436348599
 30
0.0
 11
235.674522857965
 21
27.79189436348599
 31
0.0
  0
LINE
  5
234
330
B6
100
AcDbEntity
  8
0
  6
Continuous
 62
     3
100
AcDbLine
 10
227.174522857965
 20
33.29189436348599
 30
0.0
 11
227.174522857965
 21
27.79189436348599
 31
0.0
  0
LINE
  5
235
330
B6
100
AcDbEntity
  8
0
  6
Continuous
 62
     3
100
AcDbLine
 10
218.174522857965
 20
30.54189436348599
 30
0.0
 11
260.674522857965
 21
30.54189436348599
 31
0.0
  0
LINE
  5
236
330
B6
100
AcDbEntity
  8
0
  6
Continuous
 62
     2
100
AcDbLine
 10
218.174522857965
 20
27.79189436348599
 30
0.0
 11
218.174522857965
 21
46.29189436348599
 31
0.0
  0
LINE
  5
237
330
B6
100
AcDbEntity
  8
1
  6
Continuous
 62
     2
100
AcDbLine
 10
260.674522857965
 20
46.29189436348599
 30
0.0
 11
218.174522857965
 21
46.29189436348599
 31
0.0
  0
LINE
  5
238
330
B6
100
AcDbEntity
  8
1
  6
Continuous
 62
     3
100
AcDbLine
 10
187.4814601339615
 20
32.49881422003
 30
0.0
 11
189.1702096713411
 21
29.57381422003004
 31
0.0
  0
LINE
  5
239
330
B6
100
AcDbEntity
  8
1
  6
Continuous
 62
     3
100
AcDbLine
 10
189.1702096713411
 20
29.57381422003004
 30
0.0
 11
192.5477087461004
 21
35.42381422003007
 31
0.0
  0
LINE
  5
23A
330
B6
100
AcDbEntity
  8
1
  6
Continuous
 62
     3
100
AcDbLine
 10
192.5477087461004
 20
35.42381422003007
 30
0.0
 11
196.4477087461004
 21
35.42381422003007
 31
0.0
  0
LINE
  5
23B
330
B6
100
AcDbEntity
  8
1
  6
Continuous
 62
     3
100
AcDbLine
 10
189.1702096713411
 20
38.29881422003007
 30
0.0
 11
192.5477087461004
 21
44.14881422002998
 31
0.0
  0
LINE
  5
23C
330
B6
100
AcDbEntity
  8
1
  6
Continuous
 62
     3
100
AcDbLine
 10
187.4814601339615
 20
41.22381422002992
 30
0.0
 11
189.1702096713411
 21
38.29881422003007
 31
0.0
  0
LINE
  5
23D
330
B6
100
AcDbEntity
  8
1
  6
Continuous
 62
     2
100
AcDbLine
 10
202.349518357965
 20
46.29189436348599
 30
0.0
 11
198.5745168579651
 21
46.29189436348599
 31
0.0
  0
LINE
  5
23E
330
B6
100
AcDbEntity
  8
1
  6
Continuous
 62
     2
100
AcDbLine
 10
207.624519857965
 20
46.29189436348599
 30
0.0
 11
203.5745168579651
 21
46.29189436348599
 31
0.0
  0
LINE
  5
23F
330
B6
100
AcDbEntity
  8
1
  6
Continuous
 62
     2
100
AcDbLine
 10
212.899521357965
 20
46.29189436348599
 30
0.0
 11
210.5745168579651
 21
46.29189436348599
 31
0.0
  0
LINE
  5
240
330
B6
100
AcDbEntity
  8
1
  6
Continuous
 62
     1
100
AcDbLine
 10
260.674522857965
 20
27.79189436348599
 30
0.0
 11
260.674522857965
 21
64.791894363486
 31
0.0
  0
LINE
  5
241
330
B6
100
AcDbEntity
  8
1
  6
Continuous
 62
     1
100
AcDbLine
 10
260.674522857965
 20
27.79189436348599
 30
0.0
 11
260.674522857965
 21
64.791894363486
 31
0.0
  0
LINE
  5
242
330
B6
100
AcDbEntity
  8
0
  6
Continuous
 62
     3
100
AcDbLine
 10
44.674522857965
 20
49.29189436348599
 30
0.0
 11
44.674522857965
 21
308.791894363486
 31
0.0
  0
LINE
  5
243
330
B6
100
AcDbEntity
  8
0
  6
Continuous
 62
     3
100
AcDbLine
 10
29.674522857965
 20
75.591943363486
 30
0.0
 11
34.674522857965
 21
75.591943363486
 31
0.0
  0
LINE
  5
244
330
B6
100
AcDbEntity
  8
0
  6
Continuous
 62
     3
100
AcDbLine
 10
34.67452285796503
 20
123.391870363486
 30
0.0
 11
29.674522857965
 21
123.391870363486
 31
0.0
  0
LINE
  5
245
330
B6
100
AcDbEntity
  8
0
  6
Continuous
 62
     3
100
AcDbLine
 10
29.674522857965
 20
171.191918363486
 30
0.0
 11
34.674522857965
 21
171.191918363486
 31
0.0
  0
LINE
  5
246
330
B6
100
AcDbEntity
  8
0
  6
Continuous
 62
     3
100
AcDbLine
 10
34.674522857965
 20
218.991967363486
 30
0.0
 11
29.674522857965
 21
218.991967363486
 31
0.0
  0
LINE
  5
247
330
B6
100
AcDbEntity
  8
0
  6
Continuous
 62
     3
100
AcDbLine
 10
29.674522857965
 20
266.791894363486
 30
0.0
 11
34.67452285796503
 21
266.791894363486
 31
0.0
  0
LINE
  5
248
330
B6
100
AcDbEntity
  8
0
  6
Continuous
 62
     3
100
AcDbLine
 10
80.974571857965
 20
313.791894363486
 30
0.0
 11
80.974571857965
 21
308.791894363486
 31
0.0
  0
LINE
  5
249
330
B6
100
AcDbEntity
  8
0
  6
Continuous
 62
     3
100
AcDbLine
 10
132.174522857965
 20
308.791894363486
 30
0.0
 11
132.174522857965
 21
313.791894363486
 31
0.0
  0
LINE
  5
24A
330
B6
100
AcDbEntity
  8
0
  6
Continuous
 62
     3
100
AcDbLine
 10
183.474571857965
 20
313.791894363486
 30
0.0
 11
183.474571857965
 21
308.791894363486
 31
0.0
  0
LINE
  5
24B
330
B6
100
AcDbEntity
  8
0
  6
Continuous
 62
     3
100
AcDbLine
 10
234.674522857965
 20
308.791894363486
 30
0.0
 11
234.674522857965
 21
313.791894363486
 31
0.0
  0
LINE
  5
24C
330
B6
100
AcDbEntity
  8
0
  6
Continuous
 62
     3
100
AcDbLine
 10
285.974571857965
 20
313.791894363486
 30
0.0
 11
285.974571857965
 21
308.791894363486
 31
0.0
  0
LINE
  5
24D
330
B6
100
AcDbEntity
  8
0
  6
Continuous
 62
     3
100
AcDbLine
 10
337.174522857965
 20
308.791894363486
 30
0.0
 11
337.174522857965
 21
313.791894363486
 31
0.0
  0
LINE
  5
24E
330
B6
100
AcDbEntity
  8
0
  6
Continuous
 62
     3
100
AcDbLine
 10
388.374473857965
 20
313.791894363486
 30
0.0
 11
388.374473857965
 21
308.791894363486
 31
0.0
  0
LINE
  5
24F
330
B6
100
AcDbEntity
  8
0
  6
Continuous
 62
     3
100
AcDbLine
 10
434.674522857965
 20
266.791894363486
 30
0.0
 11
439.674522857965
 21
266.791894363486
 31
0.0
  0
LINE
  5
250
330
B6
100
AcDbEntity
  8
0
  6
Continuous
 62
     3
100
AcDbLine
 10
434.674522857965
 20
218.991967363486
 30
0.0
 11
439.674522857965
 21
218.991967363486
 31
0.0
  0
LINE
  5
251
330
B6
100
AcDbEntity
  8
0
  6
Continuous
 62
     3
100
AcDbLine
 10
434.674522857965
 20
171.191918363486
 30
0.0
 11
439.674522857965
 21
171.191918363486
 31
0.0
  0
LINE
  5
252
330
B6
100
AcDbEntity
  8
0
  6
Continuous
 62
     3
100
AcDbLine
 10
434.674522857965
 20
123.391870363486
 30
0.0
 11
439.674522857965
 21
123.391870363486
 31
0.0
  0
LINE
  5
253
330
B6
100
AcDbEntity
  8
0
  6
Continuous
 62
     2
100
AcDbLine
 10
29.674522857965
 20
27.79189436348599
 30
0.0
 11
29.674522857965
 21
313.791894363486
 31
0.0
  0
LINE
  5
254
330
B6
100
AcDbEntity
  8
0
  6
Continuous
 62
     2
100
AcDbLine
 10
29.674522857965
 20
313.791894363486
 30
0.0
 11
439.674522857965
 21
313.791894363486
 31
0.0
  0
LINE
  5
255
330
B6
100
AcDbEntity
  8
0
  6
Continuous
 62
     2
100
AcDbLine
 10
439.674522857965
 20
313.791894363486
 30
0.0
 11
439.674522857965
 21
27.79189436348599
 31
0.0
  0
LINE
  5
256
330
B6
100
AcDbEntity
  8
0
  6
Continuous
 62
     3
100
AcDbLine
 10
434.674522857965
 20
91.99190591161542
 30
0.0
 11
434.674522857965
 21
308.7918943634861
 31
0.0
  0
LINE
  5
257
330
B6
100
AcDbEntity
  8
0
  6
Continuous
 62
     3
100
AcDbLine
 10
434.674522857965
 20
308.7918943634861
 30
0.0
 11
34.674522857965
 21
308.791894363486
 31
0.0
  0
LINE
  5
258
330
B6
100
AcDbEntity
  8
0
  6
Continuous
 62
     3
100
AcDbLine
 10
34.674522857965
 20
308.791894363486
 30
0.0
 11
34.674522857965
 21
49.29189436348599
 31
0.0
  0
LINE
  5
259
330
B6
100
AcDbEntity
  8
0
  6
Continuous
 62
     2
100
AcDbLine
 10
439.674522857965
 20
27.79189436348599
 30
0.0
 11
260.674522857965
 21
27.79189436348599
 31
0.0
  0
LINE
  5
25A
330
B6
100
AcDbEntity
  8
1
  6
DOT_CENTER
 62
     7
100
AcDbLine
 10
376.6090760663761
 20
28.11939187659585
 30
0.0
 11
376.6090760663761
 21
32.99984499100472
 31
0.0
  0
LINE
  5
25B
330
B6
100
AcDbEntity
  8
1
  6
DOT_CENTER
 62
     7
100
AcDbLine
 10
374.1006867561771
 20
30.54189436348599
 30
0.0
 11
379.2537908825642
 21
30.54189436348599
 31
0.0
  0
LINE
  5
25C
330
B6
100
AcDbEntity
  8
1
  6
DOT_CENTER
 62
     7
100
AcDbLine
 10
361.9949818243472
 20
30.54189436348599
 30
0.0
 11
370.3926329932743
 21
30.54189436348599
 31
0.0
  0
LINE
  5
25D
330
B6
100
AcDbEntity
  8
1
  6
Continuous
 62
     4
100
AcDbLine
 10
362.7078239300535
 20
29.54189436348599
 30
0.0
 11
362.7078239300535
 21
31.54189436348599
 31
0.0
  0
LINE
  5
25E
330
B6
100
AcDbEntity
  8
1
  6
Continuous
 62
     4
100
AcDbLine
 10
369.7078239300535
 20
28.54189436348599
 30
0.0
 11
362.7078239300535
 21
29.54189436348599
 31
0.0
  0
LINE
  5
25F
330
B6
100
AcDbEntity
  8
1
  6
Continuous
 62
     4
100
AcDbLine
 10
369.7078239300535
 20
32.54189436348599
 30
0.0
 11
369.7078239300535
 21
28.54189436348599
 31
0.0
  0
LINE
  5
260
330
B6
100
AcDbEntity
  8
1
  6
Continuous
 62
     4
100
AcDbLine
 10
362.7078239300535
 20
31.54189436348599
 30
0.0
 11
369.7078239300535
 21
32.54189436348599
 31
0.0
  0
LINE
  5
261
330
B6
100
AcDbEntity
  8
0
  6
Continuous
 62
     1
100
AcDbLine
 10
384.674522857965
 20
33.29189436348599
 30
0.0
 11
384.674522857965
 21
53.79189436348599
 31
0.0
  0
LINE
  5
262
330
B6
100
AcDbEntity
  8
0
  6
Continuous
 62
     1
100
AcDbLine
 10
357.674522857965
 20
33.29189436348599
 30
0.0
 11
357.674522857965
 21
27.79189436348599
 31
0.0
  0
LINE
  5
263
330
B6
100
AcDbEntity
  8
1
  6
Continuous
 62
     1
100
AcDbLine
 10
357.674522857965
 20
33.29189436348599
 30
0.0
 11
384.674522857965
 21
33.29189436348599
 31
0.0
  0
LINE
  5
264
330
B6
100
AcDbEntity
  8
1
  6
Continuous
 62
     2
100
AcDbLine
 10
439.6745220265221
 20
91.9919063634859
 30
0.0
 11
439.6745228579649
 21
91.991906363486
 31
0.0
  0
LINE
  5
265
330
B6
100
AcDbEntity
  8
1
  6
Continuous
 62
     2
100
AcDbLine
 10
439.674522857965
 20
82.791894363486
 30
0.0
 11
439.6745220265221
 21
91.9919063634859
 31
0.0
  0
LINE
  5
266
330
B6
100
AcDbEntity
  8
0
  6
Continuous
 62
     1
100
AcDbLine
 10
307.674522857965
 20
58.79189436348599
 30
0.0
 11
307.674522857965
 21
33.65856102873602
 31
0.0
  0
LINE
  5
267
330
B6
100
AcDbEntity
  8
0
  6
Continuous
 62
     1
100
AcDbLine
 10
348.674522857965
 20
58.79189436348599
 30
0.0
 11
348.674522857965
 21
53.79189436348599
 31
0.0
  0
LINE
  5
268
330
B6
100
AcDbEntity
  8
0
  6
Continuous
 62
     1
100
AcDbLine
 10
307.674522857965
 20
58.79189436348599
 30
0.0
 11
348.674522857965
 21
58.79189436348599
 31
0.0
  0
LINE
  5
269
330
B6
100
AcDbEntity
  8
0
  6
Continuous
 62
     2
100
AcDbLine
 10
439.674522857965
 20
27.79189436348599
 30
0.0
 11
260.674522857965
 21
27.79189436348599
 31
0.0
  0
LINE
  5
26A
330
B6
100
AcDbEntity
  8
0
  6
Continuous
 62
     4
100
AcDbLine
 10
260.674522857965
 20
32.09189736348601
 30
0.0
 11
307.674522857965
 21
32.09189736348603
 31
0.0
  0
LINE
  5
26B
330
B6
100
AcDbEntity
  8
0
  6
Continuous
 62
     3
100
AcDbLine
 10
307.674522857965
 20
36.39188536348598
 30
0.0
 11
260.674522857965
 21
36.39188536348598
 31
0.0
  0
LINE
  5
26C
330
B6
100
AcDbEntity
  8
0
  6
Continuous
 62
     3
100
AcDbLine
 10
260.674522857965
 20
40.69188836348599
 30
0.0
 11
307.674522857965
 21
40.69188836348599
 31
0.0
  0
LINE
  5
26D
330
B6
100
AcDbEntity
  8
0
  6
Continuous
 62
     3
100
AcDbLine
 10
307.674522857965
 20
44.991891363486
 30
0.0
 11
260.674522857965
 21
44.991891363486
 31
0.0
  0
LINE
  5
26E
330
B6
100
AcDbEntity
  8
0
  6
Continuous
 62
     3
100
AcDbLine
 10
260.674522857965
 20
49.29189436348599
 30
0.0
 11
307.674522857965
 21
49.29189436348599
 31
0.0
  0
LINE
  5
26F
330
B6
100
AcDbEntity
  8
0
  6
Continuous
 62
     3
100
AcDbLine
 10
307.674522857965
 20
53.59188236348599
 30
0.0
 11
260.674522857965
 21
53.59188236348599
 31
0.0
  0
LINE
  5
270
330
B6
100
AcDbEntity
  8
0
  6
Continuous
 62
     3
100
AcDbLine
 10
260.674522857965
 20
57.891885363486
 30
0.0
 11
307.674522857965
 21
57.89188536348598
 31
0.0
  0
LINE
  5
271
330
B6
100
AcDbEntity
  8
0
  6
Continuous
 62
     3
100
AcDbLine
 10
307.674522857965
 20
62.19188836348599
 30
0.0
 11
260.674522857965
 21
62.19188836348599
 31
0.0
  0
LINE
  5
272
330
B6
100
AcDbEntity
  8
0
  6
Continuous
 62
     3
100
AcDbLine
 10
260.674522857965
 20
66.49189136348599
 30
0.0
 11
307.674522857965
 21
66.49189136348599
 31
0.0
  0
LINE
  5
273
330
B6
100
AcDbEntity
  8
0
  6
Continuous
 62
     3
100
AcDbLine
 10
273.674522857965
 20
27.79189436348599
 30
0.0
 11
273.674522857965
 21
70.791894363486
 31
0.0
  0
LINE
  5
274
330
B6
100
AcDbEntity
  8
0
  6
Continuous
 62
     3
100
AcDbLine
 10
285.674522857965
 20
27.79189436348599
 30
0.0
 11
285.674522857965
 21
70.791894363486
 31
0.0
  0
LINE
  5
275
330
B6
100
AcDbEntity
  8
0
  6
Continuous
 62
     3
100
AcDbLine
 10
293.674522857965
 20
27.79189436348599
 30
0.0
 11
293.674522857965
 21
70.791894363486
 31
0.0
  0
LINE
  5
276
330
B6
100
AcDbEntity
  8
0
  6
Continuous
 62
     3
100
AcDbLine
 10
357.674522857965
 20
45.09189436348601
 30
0.0
 11
307.674522857965
 21
45.09189436348601
 31
0.0
  0
LINE
  5
277
330
B6
100
AcDbEntity
  8
0
  6
Continuous
 62
     3
100
AcDbLine
 10
307.674522857965
 20
49.39189436348598
 30
0.0
 11
357.674522857965
 21
49.39189436348598
 31
0.0
  0
LINE
  5
278
330
B6
100
AcDbEntity
  8
0
  6
Continuous
 62
     3
100
AcDbLine
 10
325.674522857965
 20
40.79189436348599
 30
0.0
 11
325.674522857965
 21
53.79189436348599
 31
0.0
  0
LINE
  5
279
330
B6
100
AcDbEntity
  8
0
  6
Continuous
 62
     3
100
AcDbLine
 10
342.674522857965
 20
40.79189436348599
 30
0.0
 11
342.674522857965
 21
53.7919005964124
 31
0.0
  0
LINE
  5
27A
330
B6
100
AcDbEntity
  8
0
  6
Continuous
 62
     1
100
AcDbLine
 10
384.674522857965
 20
40.758560943486
 30
0.0
 11
357.674522857965
 21
40.758560943486
 31
0.0
  0
LINE
  5
27B
330
B6
100
AcDbEntity
  8
0
  6
Continuous
 62
     2
100
AcDbLine
 10
439.674522857965
 20
70.791894363486
 30
0.0
 11
439.674522857965
 21
27.79189436348599
 31
0.0
  0
LINE
  5
27C
330
B6
100
AcDbEntity
  8
0
  6
Continuous
 62
     1
100
AcDbLine
 10
348.674522857965
 20
70.791894363486
 30
0.0
 11
439.674522857965
 21
70.791894363486
 31
0.0
  0
LINE
  5
27D
330
B6
100
AcDbEntity
  8
0
  6
Continuous
 62
     1
100
AcDbLine
 10
307.674522857965
 20
57.79189436348599
 30
0.0
 11
307.674522857965
 21
57.8924832424475
 31
0.0
  0
LINE
  5
27E
330
B6
100
AcDbEntity
  8
0
  6
Continuous
 62
     3
100
AcDbLine
 10
307.674522857965
 20
34.29189436348599
 30
0.0
 11
357.674522857965
 21
34.29189436348599
 31
0.0
  0
LINE
  5
27F
330
B6
100
AcDbEntity
  8
0
  6
Continuous
 62
     1
100
AcDbLine
 10
348.674522857965
 20
70.791894363486
 30
0.0
 11
260.674522857965
 21
70.791894363486
 31
0.0
  0
LINE
  5
280
330
B6
100
AcDbEntity
  8
0
  6
Continuous
 62
     1
100
AcDbLine
 10
348.674522857965
 20
53.79189436348599
 30
0.0
 11
357.674522857965
 21
53.79189436348599
 31
0.0
  0
LINE
  5
281
330
B6
100
AcDbEntity
  8
0
  6
Continuous
 62
     1
100
AcDbLine
 10
348.674522857965
 20
70.791894363486
 30
0.0
 11
348.674522857965
 21
66.76823262489211
 31
0.0
  0
LINE
  5
282
330
B6
100
AcDbEntity
  8
0
  6
Continuous
 62
     1
100
AcDbLine
 10
439.674522857965
 20
40.79189436348599
 30
0.0
 11
384.674522857965
 21
40.79189436348599
 31
0.0
  0
LINE
  5
283
330
B6
100
AcDbEntity
  8
0
  6
Continuous
 62
     1
100
AcDbLine
 10
307.674522857965
 20
70.791894363486
 30
0.0
 11
307.674522857965
 21
58.79189436348599
 31
0.0
  0
LINE
  5
284
330
B6
100
AcDbEntity
  8
0
  6
Continuous
 62
     1
100
AcDbLine
 10
384.674522857965
 20
27.79189436348599
 30
0.0
 11
384.674522857965
 21
33.29189436348599
 31
0.0
  0
LINE
  5
285
330
B6
100
AcDbEntity
  8
0
  6
Continuous
 62
     1
100
AcDbLine
 10
260.674522857965
 20
27.79189436348599
 30
0.0
 11
260.674522857965
 21
70.791894363486
 31
0.0
  0
LINE
  5
286
330
B6
100
AcDbEntity
  8
0
  6
Continuous
 62
     1
100
AcDbLine
 10
348.674522857965
 20
66.76823262489211
 30
0.0
 11
348.674522857965
 21
58.79189436348599
 31
0.0
  0
LINE
  5
287
330
B6
100
AcDbEntity
  8
0
  6
Continuous
 62
     7
100
AcDbLine
 10
321.969716964193
 20
67.574894344606
 30
0.0
 11
321.969716964193
 21
67.8739098979127
 31
0.0
  0
LINE
  5
288
330
B6
100
AcDbEntity
  8
0
  6
Continuous
 62
     7
100
AcDbLine
 10
323.294073749999
 20
66.31182171537239
 30
0.0
 11
323.294073749999
 21
66.7145012288465
 31
0.0
  0
LINE
  5
289
330
B6
100
AcDbEntity
  8
0
  6
Continuous
 62
     7
100
AcDbLine
 10
323.351779265284
 20
67.624603042334
 30
0.0
 11
325.666388087503
 21
67.624603042334
 31
0.0
  0
LINE
  5
28A
330
B6
100
AcDbEntity
  8
0
  6
Continuous
 62
     7
100
AcDbLine
 10
325.666388087503
 20
67.624603042334
 30
0.0
 11
325.666388087503
 21
68.01310147317159
 31
0.0
  0
LINE
  5
28B
330
B6
100
AcDbEntity
  8
0
  6
Continuous
 62
     7
100
AcDbLine
 10
325.666388087503
 20
68.01310147317159
 30
0.0
 11
322.587164655127
 21
68.01310147317159
 31
0.0
  0
LINE
  5
28C
330
B6
100
AcDbEntity
  8
0
  6
Continuous
 62
     7
100
AcDbLine
 10
322.449480856338
 20
67.8754176743835
 30
0.0
 11
322.449480856338
 21
65.9770212886732
 31
0.0
  0
LINE
  5
28D
330
B6
100
AcDbEntity
  8
0
  6
Continuous
 62
     7
100
AcDbLine
 10
322.587164655127
 20
65.8393374898851
 30
0.0
 11
325.666388087503
 21
65.8393374898851
 31
0.0
  0
LINE
  5
28E
330
B6
100
AcDbEntity
  8
0
  6
Continuous
 62
     7
100
AcDbLine
 10
325.666388087503
 20
65.8393374898851
 30
0.0
 11
325.666388087503
 21
66.25547848935548
 31
0.0
  0
LINE
  5
28F
330
B6
100
AcDbEntity
  8
0
  6
Continuous
 62
     7
100
AcDbLine
 10
325.666388087503
 20
66.25547848935548
 30
0.0
 11
323.351779265284
 21
66.25547848935548
 31
0.0
  0
LINE
  5
290
330
B6
100
AcDbEntity
  8
0
  6
Continuous
 62
     7
100
AcDbLine
 10
323.351779265284
 20
66.7708444548635
 30
0.0
 11
325.666388087503
 21
66.7708444548635
 31
0.0
  0
LINE
  5
291
330
B6
100
AcDbEntity
  8
0
  6
Continuous
 62
     7
100
AcDbLine
 10
325.666388087503
 20
66.7708444548635
 30
0.0
 11
325.666388087503
 21
67.11386621511369
 31
0.0
  0
LINE
  5
292
330
B6
100
AcDbEntity
  8
0
  6
Continuous
 62
     7
100
AcDbLine
 10
325.666388087503
 20
67.11386621511369
 30
0.0
 11
323.351779265284
 21
67.11386621511369
 31
0.0
  0
LINE
  5
293
330
B6
100
AcDbEntity
  8
0
  6
Continuous
 62
     7
100
AcDbLine
 10
323.294073749999
 20
67.17020944113068
 30
0.0
 11
323.294073749999
 21
67.56825981631698
 31
0.0
  0
LINE
  5
294
330
B6
100
AcDbEntity
  8
0
  6
Continuous
 62
     7
100
AcDbLine
 10
315.881566870866
 20
66.31182171537239
 30
0.0
 11
315.881566870866
 21
66.7145012288465
 31
0.0
  0
LINE
  5
295
330
B6
100
AcDbEntity
  8
0
  6
Continuous
 62
     7
100
AcDbLine
 10
311.942117283525
 20
65.8346951254879
 30
0.0
 11
313.919156115691
 21
65.8346951254879
 31
0.0
  0
LINE
  5
296
330
B6
100
AcDbEntity
  8
0
  6
Continuous
 62
     7
100
AcDbLine
 10
311.3337162514169
 20
67.543627494134
 30
0.0
 11
311.3337162514169
 21
66.3041691045255
 31
0.0
  0
LINE
  5
297
330
B6
100
AcDbEntity
  8
0
  6
Continuous
 62
     7
100
AcDbLine
 10
312.177846231249
 20
67.43537178874689
 30
0.0
 11
312.177846231249
 21
66.45203837760769
 31
0.0
  0
LINE
  5
298
330
B6
100
AcDbEntity
  8
0
  6
Continuous
 62
     7
100
AcDbLine
 10
312.3200533594491
 20
66.31405037830359
 30
0.0
 11
313.598396510676
 21
66.31405037830359
 31
0.0
  0
LINE
  5
299
330
B6
100
AcDbEntity
  8
0
  6
Continuous
 62
     7
100
AcDbLine
 10
312.3200533594491
 20
67.573359788051
 30
0.0
 11
313.5953809577341
 21
67.573359788051
 31
0.0
  0
LINE
  5
29A
330
B6
100
AcDbEntity
  8
0
  6
Continuous
 62
     7
100
AcDbLine
 10
326.357399398885
 20
65.4746804277924
 30
0.0
 11
310.642718166145
 21
65.4746804277924
 31
0.0
  0
LINE
  5
29B
330
B6
100
AcDbEntity
  8
0
  6
Continuous
 62
     7
100
AcDbLine
 10
310.256991911788
 20
68.797713960732
 30
0.0
 11
326.743125653242
 21
68.797713960732
 31
0.0
  0
LINE
  5
29C
330
B6
100
AcDbEntity
  8
0
  6
Continuous
 62
     7
100
AcDbLine
 10
327.352359930242
 20
68.32693059686449
 30
0.0
 11
327.352359930242
 21
65.52086600179499
 31
0.0
  0
LINE
  5
29D
330
B6
100
AcDbEntity
  8
0
  6
Continuous
 62
     7
100
AcDbLine
 10
326.743125653242
 20
65.05008263792749
 30
0.0
 11
310.256991911788
 21
65.05008263792749
 31
0.0
  0
LINE
  5
29E
330
B6
100
AcDbEntity
  8
0
  6
Continuous
 62
     7
100
AcDbLine
 10
309.647757634787
 20
65.52086600179499
 30
0.0
 11
309.647757634787
 21
68.32693059686449
 31
0.0
  0
LINE
  5
29F
330
B6
100
AcDbEntity
  8
0
  6
Continuous
 62
     7
100
AcDbLine
 10
326.493919300046
 20
65.6112003289538
 30
0.0
 11
326.493919300046
 21
68.2365962697057
 31
0.0
  0
LINE
  5
2A0
330
B6
100
AcDbEntity
  8
0
  6
Continuous
 62
     7
100
AcDbLine
 10
326.357399398885
 20
68.37311617086719
 30
0.0
 11
310.642718166145
 21
68.3731161708672
 31
0.0
  0
LINE
  5
2A1
330
B6
100
AcDbEntity
  8
0
  6
Continuous
 62
     7
100
AcDbLine
 10
310.506198264983
 20
68.2365962697057
 30
0.0
 11
310.506198264983
 21
65.6112003289538
 31
0.0
  0
LINE
  5
2A2
330
B6
100
AcDbEntity
  8
0
  6
Continuous
 62
     7
100
AcDbLine
 10
312.921418101361
 20
66.72084445486348
 30
0.0
 11
313.675055040721
 21
66.72084445486348
 31
0.0
  0
LINE
  5
2A3
330
B6
100
AcDbEntity
  8
0
  6
Continuous
 62
     7
100
AcDbLine
 10
313.733686383663
 20
67.4359537375602
 30
0.0
 11
313.733686383663
 21
67.3559093235097
 31
0.0
  0
LINE
  5
2A4
330
B6
100
AcDbEntity
  8
0
  6
Continuous
 62
     7
100
AcDbLine
 10
313.733686383663
 20
67.3559093235097
 30
0.0
 11
314.527557147799
 21
67.3559093235097
 31
0.0
  0
LINE
  5
2A5
330
B6
100
AcDbEntity
  8
0
  6
Continuous
 62
     7
100
AcDbLine
 10
314.527557147799
 20
67.3559093235097
 30
0.0
 11
314.527557147799
 21
67.543627494134
 31
0.0
  0
LINE
  5
2A6
330
B6
100
AcDbEntity
  8
0
  6
Continuous
 62
     7
100
AcDbLine
 10
313.919156115691
 20
68.01310147317159
 30
0.0
 11
311.942117283525
 21
68.01310147317159
 31
0.0
  0
LINE
  5
2A7
330
B6
100
AcDbEntity
  8
0
  6
Continuous
 62
     7
100
AcDbLine
 10
314.527557147799
 20
66.3041691045255
 30
0.0
 11
314.527557147799
 21
67.0638662151137
 31
0.0
  0
LINE
  5
2A8
330
B6
100
AcDbEntity
  8
0
  6
Continuous
 62
     7
100
AcDbLine
 10
314.527557147799
 20
67.0638662151137
 30
0.0
 11
312.921418101361
 21
67.06386621511369
 31
0.0
  0
LINE
  5
2A9
330
B6
100
AcDbEntity
  8
0
  6
Continuous
 62
     7
100
AcDbLine
 10
312.921418101361
 20
67.06386621511369
 30
0.0
 11
312.921418101361
 21
66.72084445486348
 31
0.0
  0
LINE
  5
2AA
330
B6
100
AcDbEntity
  8
0
  6
Continuous
 62
     7
100
AcDbLine
 10
315.939272386151
 20
67.624603042334
 30
0.0
 11
318.253881208371
 21
67.624603042334
 31
0.0
  0
LINE
  5
2AB
330
B6
100
AcDbEntity
  8
0
  6
Continuous
 62
     7
100
AcDbLine
 10
318.253881208371
 20
67.624603042334
 30
0.0
 11
318.253881208371
 21
68.01310147317159
 31
0.0
  0
LINE
  5
2AC
330
B6
100
AcDbEntity
  8
0
  6
Continuous
 62
     7
100
AcDbLine
 10
318.253881208371
 20
68.01310147317159
 30
0.0
 11
315.174657775994
 21
68.01310147317159
 31
0.0
  0
LINE
  5
2AD
330
B6
100
AcDbEntity
  8
0
  6
Continuous
 62
     7
100
AcDbLine
 10
315.036973977206
 20
67.8754176743835
 30
0.0
 11
315.036973977206
 21
65.9770212886732
 31
0.0
  0
LINE
  5
2AE
330
B6
100
AcDbEntity
  8
0
  6
Continuous
 62
     7
100
AcDbLine
 10
315.174657775994
 20
65.8393374898851
 30
0.0
 11
318.253881208371
 21
65.8393374898851
 31
0.0
  0
LINE
  5
2AF
330
B6
100
AcDbEntity
  8
0
  6
Continuous
 62
     7
100
AcDbLine
 10
318.253881208371
 20
65.8393374898851
 30
0.0
 11
318.253881208371
 21
66.25547848935548
 31
0.0
  0
LINE
  5
2B0
330
B6
100
AcDbEntity
  8
0
  6
Continuous
 62
     7
100
AcDbLine
 10
318.253881208371
 20
66.25547848935548
 30
0.0
 11
315.939272386151
 21
66.25547848935548
 31
0.0
  0
LINE
  5
2B1
330
B6
100
AcDbEntity
  8
0
  6
Continuous
 62
     7
100
AcDbLine
 10
315.939272386151
 20
66.7708444548635
 30
0.0
 11
318.253881208371
 21
66.7708444548635
 31
0.0
  0
LINE
  5
2B2
330
B6
100
AcDbEntity
  8
0
  6
Continuous
 62
     7
100
AcDbLine
 10
318.253881208371
 20
66.7708444548635
 30
0.0
 11
318.253881208371
 21
67.11386621511369
 31
0.0
  0
LINE
  5
2B3
330
B6
100
AcDbEntity
  8
0
  6
Continuous
 62
     7
100
AcDbLine
 10
318.253881208371
 20
67.11386621511369
 30
0.0
 11
315.939272386151
 21
67.11386621511369
 31
0.0
  0
LINE
  5
2B4
330
B6
100
AcDbEntity
  8
0
  6
Continuous
 62
     7
100
AcDbLine
 10
315.881566870866
 20
67.17020944113068
 30
0.0
 11
315.881566870866
 21
67.56825981631698
 31
0.0
  0
LINE
  5
2B5
330
B6
100
AcDbEntity
  8
0
  6
Continuous
 62
     7
100
AcDbLine
 10
318.7754396062001
 20
67.9554091839964
 30
0.0
 11
318.7754396062001
 21
67.6822953315091
 31
0.0
  0
LINE
  5
2B6
330
B6
100
AcDbEntity
  8
0
  6
Continuous
 62
     7
100
AcDbLine
 10
318.833131895376
 20
67.624603042334
 30
0.0
 11
320.713897877264
 21
67.624603042334
 31
0.0
  0
LINE
  5
2B7
330
B6
100
AcDbEntity
  8
0
  6
Continuous
 62
     7
100
AcDbLine
 10
320.713897877264
 20
67.624603042334
 30
0.0
 11
318.7754396062001
 21
66.3054784893555
 31
0.0
  0
LINE
  5
2B8
330
B6
100
AcDbEntity
  8
0
  6
Continuous
 62
     7
100
AcDbLine
 10
318.7754396062001
 20
66.3054784893555
 30
0.0
 11
318.7754396062001
 21
65.89624943860599
 31
0.0
  0
LINE
  5
2B9
330
B6
100
AcDbEntity
  8
0
  6
Continuous
 62
     7
100
AcDbLine
 10
318.833131895376
 20
65.8387026366342
 30
0.0
 11
321.9120246750171
 21
65.8387026366342
 31
0.0
  0
LINE
  5
2BA
330
B6
100
AcDbEntity
  8
0
  6
Continuous
 62
     7
100
AcDbLine
 10
321.969716964193
 20
65.89624943860599
 30
0.0
 11
321.969716964193
 21
66.1979316873836
 31
0.0
  0
LINE
  5
2BB
330
B6
100
AcDbEntity
  8
0
  6
Continuous
 62
     7
100
AcDbLine
 10
321.9120246750171
 20
66.25547848935548
 30
0.0
 11
320.067736302836
 21
66.2554784893555
 31
0.0
  0
LINE
  5
2BC
330
B6
100
AcDbEntity
  8
0
  6
Continuous
 62
     7
100
AcDbLine
 10
320.067736302836
 20
66.2554784893555
 30
0.0
 11
321.969716964193
 21
67.574894344606
 31
0.0
  0
LINE
  5
2BD
330
B6
100
AcDbEntity
  8
0
  6
Continuous
 62
     7
100
AcDbLine
 10
321.834585804517
 20
68.01310147317159
 30
0.0
 11
318.833131895376
 21
68.01310147317159
 31
0.0
  0
LINE
  5
2BE
330
B6
100
AcDbEntity
  8
0
  6
Continuous
 62
     7
100
AcDbLine
 10
313.734519628555
 20
66.66272655382949
 30
0.0
 11
313.734519628555
 21
66.5509935149656
 31
0.0
  0
LINE
  5
2BF
330
B6
100
AcDbEntity
  8
0
  6
Continuous
 62
     1
100
AcDbLine
 10
348.674522857965
 20
53.79189436348599
 30
0.0
 11
307.674522857965
 21
53.79189436348599
 31
0.0
  0
LINE
  5
2C0
330
B6
100
AcDbEntity
  8
0
  6
Continuous
 62
     1
100
AcDbLine
 10
357.674522857965
 20
40.79189436348599
 30
0.0
 11
342.674522857965
 21
40.79189436348599
 31
0.0
  0
LINE
  5
2C1
330
B6
100
AcDbEntity
  8
0
  6
Continuous
 62
     1
100
AcDbLine
 10
357.674522857965
 20
53.79189436348599
 30
0.0
 11
357.674522857965
 21
33.29189436348599
 31
0.0
  0
LINE
  5
2C2
330
B6
100
AcDbEntity
  8
0
  6
Continuous
 62
     1
100
AcDbLine
 10
357.674522857965
 20
53.79189436348599
 30
0.0
 11
439.674522857965
 21
53.79189436348599
 31
0.0
  0
LINE
  5
2C3
330
B6
100
AcDbEntity
  8
0
  6
Continuous
 62
     1
100
AcDbLine
 10
357.674522857965
 20
47.62522765348599
 30
0.0
 11
384.674522857965
 21
47.62522765348599
 31
0.0
  0
LINE
  5
2C4
330
B6
100
AcDbEntity
  8
0
  6
Continuous
 62
     1
100
AcDbLine
 10
325.674522857965
 20
40.79189436348599
 30
0.0
 11
307.674522857965
 21
40.79189436348599
 31
0.0
  0
LINE
  5
2C5
330
B6
100
AcDbEntity
  8
0
  6
Continuous
 62
     1
100
AcDbLine
 10
342.674522857965
 20
40.79189436348599
 30
0.0
 11
325.674522857965
 21
40.79189436348599
 31
0.0
  0
LINE
  5
2C6
330
B6
100
AcDbEntity
  8
0
  6
Continuous
 62
     1
100
AcDbLine
 10
307.674522857965
 20
33.65856102873602
 30
0.0
 11
307.674522857965
 21
27.79189436348599
 31
0.0
  0
LINE
  5
2C7
330
B6
100
AcDbEntity
  8
0
  6
Continuous
 62
     3
100
AcDbLine
 10
266.174522857965
 20
27.79189436348599
 30
0.0
 11
266.174522857965
 21
70.791894363486
 31
0.0
  0
LINE
  5
2C8
330
B6
100
AcDbEntity
  8
0
  6
Continuous
 62
     1
100
AcDbLine
 10
355.674522857965
 20
70.791894363486
 30
0.0
 11
355.674522857965
 21
92.091897363486
 31
0.0
  0
LINE
  5
2C9
330
B6
100
AcDbEntity
  8
0
  6
Continuous
 62
     1
100
AcDbLine
 10
311.674522857965
 20
70.791894363486
 30
0.0
 11
311.674522857965
 21
91.9918955438138
 31
0.0
  0
LINE
  5
2CA
330
B6
100
AcDbEntity
  8
0
  6
Continuous
 62
     1
100
AcDbLine
 10
400.6745228579651
 20
91.99190283889578
 30
0.0
 11
400.674522857965
 21
82.791894363486
 31
0.0
  0
LINE
  5
2CB
330
B6
100
AcDbEntity
  8
0
  6
Continuous
 62
     2
100
AcDbLine
 10
400.6745228579651
 20
91.99190283889578
 30
0.0
 11
439.6745220265221
 21
91.9919063634859
 31
0.0
  0
LINE
  5
2CC
330
B6
100
AcDbEntity
  8
0
  6
Continuous
 62
     3
100
AcDbLine
 10
400.674522857965
 20
82.791894363486
 30
0.0
 11
431.674522857965
 21
82.791894363486
 31
0.0
  0
LINE
  5
2CD
330
B6
100
AcDbEntity
  8
0
  6
Continuous
 62
     1
100
AcDbLine
 10
400.674522857965
 20
82.791894363486
 30
0.0
 11
400.674522857965
 21
78.791894363486
 31
0.0
  0
LINE
  5
2CE
330
B6
100
AcDbEntity
  8
0
  6
Continuous
 62
     2
100
AcDbLine
 10
439.674522857965
 20
82.791894363486
 30
0.0
 11
439.674522857965
 21
78.791894363486
 31
0.0
  0
LINE
  5
2CF
330
B6
100
AcDbEntity
  8
0
  6
Continuous
 62
     3
100
AcDbLine
 10
400.674522857965
 20
79.791894363486
 30
0.0
 11
439.674522857965
 21
79.791894363486
 31
0.0
  0
LINE
  5
2D0
330
B6
100
AcDbEntity
  8
0
  6
Continuous
 62
     1
100
AcDbLine
 10
400.674522857965
 20
78.791894363486
 30
0.0
 11
400.674522857965
 21
74.791894363486
 31
0.0
  0
LINE
  5
2D1
330
B6
100
AcDbEntity
  8
0
  6
Continuous
 62
     2
100
AcDbLine
 10
439.674522857965
 20
78.791894363486
 30
0.0
 11
439.674522857965
 21
70.791894363486
 31
0.0
  0
LINE
  5
2D2
330
B6
100
AcDbEntity
  8
0
  6
Continuous
 62
     3
100
AcDbLine
 10
400.674522857965
 20
76.791894363486
 30
0.0
 11
439.674522857965
 21
76.791894363486
 31
0.0
  0
LINE
  5
2D3
330
B6
100
AcDbEntity
  8
0
  6
Continuous
 62
     1
100
AcDbLine
 10
400.674522857965
 20
74.791894363486
 30
0.0
 11
400.674522857965
 21
70.791894363486
 31
0.0
  0
LINE
  5
2D4
330
B6
100
AcDbEntity
  8
0
  6
Continuous
 62
     3
100
AcDbLine
 10
431.674522857965
 20
70.791894363486
 30
0.0
 11
431.674522857965
 21
82.791894363486
 31
0.0
  0
LINE
  5
2D5
330
B6
100
AcDbEntity
  8
0
  6
Continuous
 62
     3
100
AcDbLine
 10
431.674522857965
 20
82.791894363486
 30
0.0
 11
439.674522857965
 21
82.791894363486
 31
0.0
  0
LINE
  5
2D6
330
B6
100
AcDbEntity
  8
0
  6
Continuous
 62
     3
100
AcDbLine
 10
400.674522857965
 20
73.791894363486
 30
0.0
 11
439.674522857965
 21
73.791894363486
 31
0.0
  0
LINE
  5
2D7
330
B6
100
AcDbEntity
  8
0
  6
Continuous
 62
     2
100
AcDbLine
 10
260.674522857965
 20
91.99189136348599
 30
0.0
 11
400.6745228579651
 21
91.99190283889578
 31
0.0
  0
LINE
  5
2D8
330
B6
100
AcDbEntity
  8
0
  6
Continuous
 62
     1
100
AcDbLine
 10
260.674522857965
 20
27.79189436348599
 30
0.0
 11
260.674522857965
 21
91.99189136348599
 31
0.0
  0
LINE
  5
2D9
330
B6
100
AcDbEntity
  8
0
  6
Continuous
 62
     1
100
AcDbLine
 10
260.674522857965
 20
27.79189436348599
 30
0.0
 11
260.674522857965
 21
91.99189136348599
 31
0.0
  0
LINE
  5
2DA
330
B6
100
AcDbEntity
  8
0
  6
Continuous
 62
     2
100
AcDbLine
 10
439.674522857965
 20
27.79189436348599
 30
0.0
 11
29.674522857965
 21
27.79189436348599
 31
0.0
  0
LINE
  5
2DB
330
B6
100
AcDbEntity
  8
1
  6
Continuous
 62
     3
100
AcDbLine
 10
186.674522857965
 20
32.79189436348599
 30
0.0
 11
147.353012673233
 21
32.79189436348599
 31
0.0
  0
LINE
  5
2DC
330
B6
100
AcDbEntity
  8
1
  6
Continuous
 62
     2
100
AcDbLine
 10
186.674522857965
 20
32.79189436348599
 30
0.0
 11
186.674522857965
 21
27.79189436348599
 31
0.0
  0
ARC
  5
2DD
330
B6
100
AcDbEntity
  8
0
  6
Continuous
 62
     7
100
AcDbCircle
 10
321.9120974186191
 20
66.19785894378191
 30
0.0
 40
0.0576195914926158
100
AcDbArc
 50
0.07233481464753
 51
90.07233481495885
  0
ARC
  5
2DE
330
B6
100
AcDbEntity
  8
0
  6
Continuous
 62
     7
100
AcDbCircle
 10
321.9120974186191
 20
65.89632218220771
 30
0.0
 40
0.0576195914922183
100
AcDbArc
 50
269.9276651850411
 51
359.9276651853242
  0
ARC
  5
2DF
330
B6
100
AcDbEntity
  8
0
  6
Continuous
 62
     7
100
AcDbCircle
 10
318.833059151774
 20
65.89632218220771
 30
0.0
 40
0.0576195914926159
100
AcDbArc
 50
180.0723348146758
 51
270.0723348149589
  0
ARC
  5
2E0
330
B6
100
AcDbEntity
  8
0
  6
Continuous
 62
     7
100
AcDbCircle
 10
318.833131895376
 20
67.6822953315091
 30
0.0
 40
0.0576922891759182
100
AcDbArc
 50
180.0
 51
270.0
  0
ARC
  5
2E1
330
B6
100
AcDbEntity
  8
0
  6
Continuous
 62
     7
100
AcDbCircle
 10
318.833131895376
 20
67.95540918399638
 30
0.0
 40
0.0576922891752076
100
AcDbArc
 50
90.0
 51
179.9999999999859
  0
ARC
  5
2E2
330
B6
100
AcDbEntity
  8
0
  6
Continuous
 62
     7
100
AcDbCircle
 10
323.35097275281
 20
66.31237446097239
 30
0.0
 40
0.0569016875723858
100
AcDbArc
 50
180.5565825808428
 51
270.8121254434639
  0
ARC
  5
2E3
330
B6
100
AcDbEntity
  8
0
  6
Continuous
 62
     7
100
AcDbCircle
 10
323.35097275281
 20
66.71394848324661
 30
0.0
 40
0.0569016875725121
100
AcDbArc
 50
89.18787455653562
 51
179.4434174192716
  0
ARC
  5
2E4
330
B6
100
AcDbEntity
  8
0
  6
Continuous
 62
     7
100
AcDbCircle
 10
323.35097275281
 20
67.56770707071709
 30
0.0
 40
0.0569016875725405
100
AcDbArc
 50
89.18787455653603
 51
179.4434174192716
  0
ARC
  5
2E5
330
B6
100
AcDbEntity
  8
0
  6
Continuous
 62
     7
100
AcDbCircle
 10
323.35097275281
 20
67.17076218673068
 30
0.0
 40
0.0569016875723858
100
AcDbArc
 50
180.5565825808428
 51
270.8121254434627
  0
ARC
  5
2E6
330
B6
100
AcDbEntity
  8
0
  6
Continuous
 62
     7
100
AcDbCircle
 10
315.9384658736771
 20
66.31237446097239
 30
0.0
 40
0.0569016875724995
100
AcDbArc
 50
180.5565825808417
 51
270.8121254433495
  0
ARC
  5
2E7
330
B6
100
AcDbEntity
  8
0
  6
Continuous
 62
     7
100
AcDbCircle
 10
315.9384658736771
 20
66.71394848324661
 30
0.0
 40
0.0569016875725105
100
AcDbArc
 50
89.18787455665009
 51
179.4434174192727
  0
ARC
  5
2E8
330
B6
100
AcDbEntity
  8
0
  6
Continuous
 62
     7
100
AcDbCircle
 10
315.9384658736771
 20
67.56770707071709
 30
0.0
 40
0.0569016875725389
100
AcDbArc
 50
89.18787455665048
 51
179.4434174192727
  0
ARC
  5
2E9
330
B6
100
AcDbEntity
  8
0
  6
Continuous
 62
     7
100
AcDbCircle
 10
315.9384658736771
 20
67.17076218673068
 30
0.0
 40
0.0569016875724995
100
AcDbArc
 50
180.5565825808417
 51
270.8121254433483
  0
ARC
  5
2EA
330
B6
100
AcDbEntity
  8
0
  6
Continuous
 62
     7
100
AcDbCircle
 10
313.675055040721
 20
66.661364264562
 30
0.0
 40
0.0594801903015968
100
AcDbArc
 50
1.31237392904474
 51
90.0
  0
ARC
  5
2EB
330
B6
100
AcDbEntity
  8
0
  6
Continuous
 62
     7
100
AcDbCircle
 10
326.357399398885
 20
65.6112003289538
 30
0.0
 40
0.1365199011613925
100
AcDbArc
 50
270.0
 51
0.0
  0
ARC
  5
2EC
330
B6
100
AcDbEntity
  8
0
  6
Continuous
 62
     7
100
AcDbCircle
 10
326.357399398885
 20
68.2365962697057
 30
0.0
 40
0.136519901161023
100
AcDbArc
 50
0.0
 51
90.0
  0
ARC
  5
2ED
330
B6
100
AcDbEntity
  8
0
  6
Continuous
 62
     7
100
AcDbCircle
 10
310.642718166145
 20
65.6112003289538
 30
0.0
 40
0.1365199011619893
100
AcDbArc
 50
180.0
 51
270.0
  0
ARC
  5
2EE
330
B6
100
AcDbEntity
  8
0
  6
Continuous
 62
     7
100
AcDbCircle
 10
310.642718166145
 20
68.2365962697057
 30
0.0
 40
0.1365199011615061
100
AcDbArc
 50
90.0
 51
180.0
  0
CIRCLE
  5
2EF
330
B6
100
AcDbEntity
  8
1
  6
Continuous
 62
     4
100
AcDbCircle
 10
376.6090760663761
 20
30.54189436348599
 30
0.0
 40
2.0
  0
CIRCLE
  5
2F0
330
B6
100
AcDbEntity
  8
1
  6
Continuous
 62
     4
100
AcDbCircle
 10
376.6090760663761
 20
30.54189436348599
 30
0.0
 40
1.0
  0
SPLINE
  5
2F1
330
B6
100
AcDbEntity
  8
0
  6
Continuous
 62
     7
100
AcDbSpline
210
0.0
220
0.0
230
1.0
 70
     8
 71
     3
 72
    13
 73
     9
 74
     7
 42
0.0000000001
 43
0.0000000001
 44
0.00000001
 40
0.0
 40
0.0
 40
0.0
 40
0.0
 40
0.0353323702701708
 40
0.0704203827951495
 40
0.1027084056751437
 40
0.1352293371689256
 40
0.1740111215768599
 40
0.2125287438774664
 40
0.2125287438774664
 40
0.2125287438774664
 40
0.2125287438774664
 10
321.969716964193
 20
67.8739098979127
 30
0.0
 10
321.9688307700463
 20
67.88573180331578
 30
0.0
 10
321.9670645106483
 20
67.90929385413452
 30
0.0
 10
321.9526083779733
 20
67.94106033754085
 30
0.0
 10
321.9319206515906
 20
67.96743174646564
 30
0.0
 10
321.9056630939339
 20
67.98994068190777
 30
0.0
 10
321.8733696646243
 20
68.00890886181114
 30
0.0
 10
321.8474842710703
 20
68.01170712363407
 30
0.0
 10
321.834585804517
 20
68.01310147317159
 30
0.0
 11
321.969716964193
 21
67.8739098979127
 31
0.0
 11
321.965007885653
 21
67.90892705039847
 31
0.0
 11
321.9510020194007
 21
67.94109853363247
 31
0.0
 11
321.931222762482
 21
67.96661906296168
 31
0.0
 11
321.9066481034387
 21
67.98791923005331
 31
0.0
 11
321.8724978436251
 21
68.00629820055013
 31
0.0
 11
321.834585804517
 21
68.01310147317159
 31
0.0
  0
SPLINE
  5
2F2
330
B6
100
AcDbEntity
  8
0
  6
Continuous
 62
     7
100
AcDbSpline
210
0.0
220
0.0
230
1.0
 70
     8
 71
     3
 72
    13
 73
     9
 74
     7
 42
0.0000000001
 43
0.0000000001
 44
0.00000001
 40
0.0
 40
0.0
 40
0.0
 40
0.0
 40
0.0381152522468795
 40
0.0763355512011777
 40
0.1127548768764209
 40
0.1486421571418285
 40
0.1827729054950796
 40
0.2174479487770099
 40
0.2174479487770099
 40
0.2174479487770099
 40
0.2174479487770099
 10
322.587164655127
 20
65.8393374898851
 30
0.0
 10
322.5744127366864
 20
65.84030566305753
 30
0.0
 10
322.5488737551592
 20
65.84224467771493
 30
0.0
 10
322.5139984215014
 20
65.85800571522033
 30
0.0
 10
322.484448522772
 20
65.88036434578102
 30
0.0
 10
322.4621448014656
 20
65.90872276091588
 30
0.0
 10
322.4508461762036
 20
65.94245306640796
 30
0.0
 10
322.449938356758
 20
65.96543793988994
 30
0.0
 10
322.449480856338
 20
65.9770212886732
 30
0.0
 11
322.587164655127
 21
65.8393374898851
 31
0.0
 11
322.5493896305167
 21
65.84441882529359
 31
0.0
 11
322.5142623401488
 21
65.85948085449162
 31
0.0
 11
322.4853666680928
 21
65.88164856567418
 31
0.0
 11
322.4636460194989
 21
65.91021621012571
 31
0.0
 11
322.4525086892779
 21
65.94247869389093
 31
0.0
 11
322.449480856338
 21
65.9770212886732
 31
0.0
  0
SPLINE
  5
2F3
330
B6
100
AcDbEntity
  8
0
  6
Continuous
 62
     7
100
AcDbSpline
210
0.0
220
0.0
230
1.0
 70
     8
 71
     3
 72
    13
 73
     9
 74
     7
 42
0.0000000001
 43
0.0000000001
 44
0.00000001
 40
0.0
 40
0.0
 40
0.0
 40
0.0
 40
0.0381152522468852
 40
0.076335551201189
 40
0.1127548768764582
 40
0.1486421571418318
 40
0.1827729054950426
 40
0.2174479487769446
 40
0.2174479487769446
 40
0.2174479487769446
 40
0.2174479487769446
 10
322.587164655127
 20
68.01310147317159
 30
0.0
 10
322.5744127366864
 20
68.01213329999914
 30
0.0
 10
322.5488737551592
 20
68.01019428534173
 30
0.0
 10
322.5139984215015
 20
67.99443324783627
 30
0.0
 10
322.484448522772
 20
67.97207461727555
 30
0.0
 10
322.4621448014656
 20
67.94371620214078
 30
0.0
 10
322.4508461762035
 20
67.90998589664869
 30
0.0
 10
322.449938356758
 20
67.88700102316673
 30
0.0
 10
322.449480856338
 20
67.8754176743835
 30
0.0
 11
322.587164655127
 21
68.01310147317159
 31
0.0
 11
322.5493896305167
 21
68.00802013776305
 31
0.0
 11
322.5142623401488
 21
67.992958108565
 31
0.0
 11
322.4853666680928
 21
67.9707903973824
 31
0.0
 11
322.4636460194989
 21
67.94222275293092
 31
0.0
 11
322.4525086892779
 21
67.90996026916574
 31
0.0
 11
322.449480856338
 21
67.8754176743835
 31
0.0
  0
SPLINE
  5
2F4
330
B6
100
AcDbEntity
  8
0
  6
Continuous
 62
     7
100
AcDbSpline
210
0.0
220
0.0
230
1.0
 70
     8
 71
     3
 72
    13
 73
     9
 74
     7
 42
0.0000000001
 43
0.0000000001
 44
0.00000001
 40
0.0
 40
0.0
 40
0.0
 40
0.0
 40
0.0381152522467668
 40
0.0763355512011172
 40
0.1127548768763154
 40
0.1486421571415853
 40
0.1827729054947066
 40
0.2174479487766121
 40
0.2174479487766121
 40
0.2174479487766121
 40
0.2174479487766121
 10
315.174657775994
 20
65.8393374898851
 30
0.0
 10
315.1619058575534
 20
65.84030566305755
 30
0.0
 10
315.1363668760261
 20
65.84224467771494
 30
0.0
 10
315.1014915423686
 20
65.85800571522034
 30
0.0
 10
315.071941643639
 20
65.88036434578098
 30
0.0
 10
315.0496379223327
 20
65.90872276091586
 30
0.0
 10
315.0383392970713
 20
65.942453066408
 30
0.0
 10
315.0374314776258
 20
65.96543793988997
 30
0.0
 10
315.036973977206
 20
65.9770212886732
 30
0.0
 11
315.174657775994
 21
65.8393374898851
 31
0.0
 11
315.1368827513838
 21
65.84441882529359
 31
0.0
 11
315.1017554610158
 21
65.85948085449162
 31
0.0
 11
315.0728597889599
 21
65.88164856567418
 31
0.0
 11
315.0511391403662
 21
65.91021621012571
 31
0.0
 11
315.0400018101456
 21
65.94247869389093
 31
0.0
 11
315.036973977206
 21
65.9770212886732
 31
0.0
  0
SPLINE
  5
2F5
330
B6
100
AcDbEntity
  8
0
  6
Continuous
 62
     7
100
AcDbSpline
210
0.0
220
0.0
230
1.0
 70
     8
 71
     3
 72
    13
 73
     9
 74
     7
 42
0.0000000001
 43
0.0000000001
 44
0.00000001
 40
0.0
 40
0.0
 40
0.0
 40
0.0
 40
0.0381152522467725
 40
0.0763355512011285
 40
0.1127548768763527
 40
0.1486421571415886
 40
0.1827729054946696
 40
0.2174479487765468
 40
0.2174479487765468
 40
0.2174479487765468
 40
0.2174479487765468
 10
315.174657775994
 20
68.01310147317159
 30
0.0
 10
315.1619058575533
 20
68.0121332999991
 30
0.0
 10
315.1363668760262
 20
68.01019428534167
 30
0.0
 10
315.1014915423686
 20
67.99443324783634
 30
0.0
 10
315.071941643639
 20
67.97207461727558
 30
0.0
 10
315.0496379223327
 20
67.94371620214073
 30
0.0
 10
315.0383392970714
 20
67.90998589664866
 30
0.0
 10
315.0374314776259
 20
67.88700102316673
 30
0.0
 10
315.036973977206
 20
67.8754176743835
 30
0.0
 11
315.174657775994
 21
68.01310147317159
 31
0.0
 11
315.1368827513838
 21
68.00802013776305
 31
0.0
 11
315.1017554610158
 21
67.992958108565
 31
0.0
 11
315.0728597889599
 21
67.9707903973824
 31
0.0
 11
315.0511391403662
 21
67.94222275293092
 31
0.0
 11
315.0400018101456
 21
67.90996026916574
 31
0.0
 11
315.036973977206
 21
67.8754176743835
 31
0.0
  0
SPLINE
  5
2F6
330
B6
100
AcDbEntity
  8
0
  6
Continuous
 62
     7
100
AcDbSpline
210
0.0
220
0.0
230
1.0
 70
     8
 71
     3
 72
    13
 73
     9
 74
     7
 42
0.0000000001
 43
0.0000000001
 44
0.00000001
 40
0.0
 40
0.0
 40
0.0
 40
0.0
 40
0.030324938364192
 40
0.0604417851174199
 40
0.0959479298118362
 40
0.1315593707300964
 40
0.1736623627999621
 40
0.2160932553480802
 40
0.2160932553480802
 40
0.2160932553480802
 40
0.2160932553480802
 10
313.733686383663
 20
67.4359537375602
 30
0.0
 10
313.7330132045317
 20
67.44609292629019
 30
0.0
 10
313.7316714656664
 20
67.46630172800725
 30
0.0
 10
313.7199701047142
 20
67.49649244174137
 30
0.0
 10
313.7019441524886
 20
67.52524697467622
 30
0.0
 10
313.6748392601173
 20
67.55208041602911
 30
0.0
 10
313.6378787627947
 20
67.57025385979614
 30
0.0
 10
313.609583477837
 20
67.57232180483247
 30
0.0
 10
313.5953809577341
 20
67.573359788051
 30
0.0
 11
313.733686383663
 21
67.4359537375602
 31
0.0
 11
313.730149084492
 21
67.46607166247821
 31
0.0
 11
313.7198518732376
 21
67.49437346275202
 31
0.0
 11
313.7008755845213
 21
67.52438324078545
 31
0.0
 11
313.6752798845808
 21
67.5491427817512
 31
0.0
 11
313.6374115701357
 21
67.56754530066347
 31
0.0
 11
313.5953809577341
 21
67.573359788051
 31
0.0
  0
SPLINE
  5
2F7
330
B6
100
AcDbEntity
  8
0
  6
Continuous
 62
     7
100
AcDbSpline
210
0.0
220
0.0
230
1.0
 70
     8
 71
     3
 72
    14
 73
    10
 74
     8
 42
0.0000000001
 43
0.0000000001
 44
0.00000001
 40
0.0
 40
0.0
 40
0.0
 40
0.0
 40
0.0375510748548962
 40
0.0754042334901776
 40
0.1094159352404677
 40
0.1434580761255245
 40
0.1709669697093841
 40
0.2205583987493991
 40
0.3151356117045082
 40
0.3151356117045082
 40
0.3151356117045082
 40
0.3151356117045082
 10
313.598396510676
 20
66.31405037830359
 30
0.0
 10
313.6109473503793
 20
66.31479233473654
 30
0.0
 10
313.6361499964061
 20
66.31628221635316
 30
0.0
 10
313.670718600784
 20
66.33025758331792
 30
0.0
 10
313.6982145675585
 20
66.35288315048933
 30
0.0
 10
313.7177930878055
 20
66.37861722221145
 30
0.0
 10
313.7301372572441
 20
66.41402830726014
 30
0.0
 10
313.733297390753
 20
66.47156020496837
 30
0.0
 10
313.7340354490709
 20
66.51952666048597
 30
0.0
 10
313.734519628555
 20
66.5509935149656
 30
0.0
 11
313.598396510676
 21
66.31405037830359
 31
0.0
 11
313.6357068837654
 21
66.31829529086963
 31
0.0
 11
313.6708094596058
 21
66.33246112257959
 31
0.0
 11
313.6972760517872
 21
66.3538226617154
 31
0.0
 11
313.7173653646715
 21
66.38130514457039
 31
0.0
 11
313.7267751886195
 21
66.40715460180795
 31
0.0
 11
313.7322426467003
 21
66.4564437155793
 31
0.0
 11
313.734519628555
 21
66.5509935149656
 31
0.0
  0
SPLINE
  5
2F8
330
B6
100
AcDbEntity
  8
0
  6
Continuous
 62
     7
100
AcDbSpline
210
0.0
220
0.0
230
1.0
 70
     8
 71
     3
 72
    13
 73
     9
 74
     7
 42
0.0000000001
 43
0.0000000001
 44
0.00000001
 40
0.0
 40
0.0
 40
0.0
 40
0.0
 40
0.0328394650075065
 40
0.0655975995953246
 40
0.1022664447832093
 40
0.1389211607506892
 40
0.1782532813534365
 40
0.2177267691613754
 40
0.2177267691613754
 40
0.2177267691613754
 40
0.2177267691613754
 10
312.3200533594491
 20
66.31405037830359
 30
0.0
 10
312.3090704678128
 20
66.31491053311612
 30
0.0
 10
312.2871318848365
 20
66.31662871247651
 30
0.0
 10
312.2554188157852
 20
66.33038698038932
 30
0.0
 10
312.2258993137988
 20
66.35015951967637
 30
0.0
 10
312.1997898415863
 20
66.37755590554083
 30
0.0
 10
312.1813189437124
 20
66.41243150402818
 30
0.0
 10
312.1790051855991
 20
66.43882030703281
 30
0.0
 10
312.177846231249
 20
66.45203837760769
 30
0.0
 11
312.3200533594491
 21
66.31405037830359
 31
0.0
 11
312.2875048275467
 21
66.3184119758293
 31
0.0
 11
312.2571235309543
 21
66.33066237170203
 31
0.0
 11
312.2267482423146
 21
66.35120369706019
 31
0.0
 11
312.2016796803761
 21
66.37794571278437
 31
0.0
 11
312.1839056498559
 21
66.41303274101668
 31
0.0
 11
312.177846231249
 21
66.45203837760769
 31
0.0
  0
SPLINE
  5
2F9
330
B6
100
AcDbEntity
  8
0
  6
Continuous
 62
     7
100
AcDbSpline
210
0.0
220
0.0
230
1.0
 70
     8
 71
     3
 72
    13
 73
     9
 74
     7
 42
0.0000000001
 43
0.0000000001
 44
0.00000001
 40
0.0
 40
0.0
 40
0.0
 40
0.0
 40
0.1486423989486759
 40
0.2982382234602945
 40
0.4390496453782314
 40
0.5790300758310551
 40
0.7141201510145567
 40
0.8476890380266333
 40
0.8476890380266333
 40
0.8476890380266333
 40
0.8476890380266333
 10
311.942117283525
 20
65.8346951254879
 30
0.0
 10
311.8924844977416
 20
65.83754377285979
 30
0.0
 10
311.7929005703957
 20
65.84325933946437
 30
0.0
 10
311.6520959420079
 20
65.88776157804918
 30
0.0
 10
311.524037261439
 20
65.95468621815223
 30
0.0
 10
311.4207632937038
 20
66.04941877068444
 30
0.0
 10
311.3493607256088
 20
66.1697354617208
 30
0.0
 10
311.3389113541672
 20
66.25952736208578
 30
0.0
 10
311.3337162514169
 20
66.3041691045255
 30
0.0
 11
311.942117283525
 21
65.8346951254879
 31
0.0
 11
311.7941971349774
 21
65.84933043958965
 31
0.0
 11
311.6510635202086
 21
65.89282387627308
 31
0.0
 11
311.5272654483295
 21
65.95992003072004
 31
0.0
 11
311.4247912407015
 21
66.05528017795551
 31
0.0
 11
311.3583220524303
 21
66.17288619575922
 31
0.0
 11
311.3337162514169
 21
66.3041691045255
 31
0.0
  0
SPLINE
  5
2FA
330
B6
100
AcDbEntity
  8
0
  6
Continuous
 62
     7
100
AcDbSpline
210
0.0
220
0.0
230
1.0
 70
     8
 71
     3
 72
    13
 73
     9
 74
     7
 42
0.0000000001
 43
0.0000000001
 44
0.00000001
 40
0.0
 40
0.0
 40
0.0
 40
0.0
 40
0.0328394650075065
 40
0.0655975995953246
 40
0.1022664447832332
 40
0.1389211607507234
 40
0.1782532813534454
 40
0.2177267691613562
 40
0.2177267691613562
 40
0.2177267691613562
 40
0.2177267691613562
 10
312.3200533594491
 20
67.573359788051
 30
0.0
 10
312.3090704678127
 20
67.57249963323846
 30
0.0
 10
312.2871318848364
 20
67.57078145387807
 30
0.0
 10
312.2554188157853
 20
67.55702318596526
 30
0.0
 10
312.2258993137987
 20
67.53725064667813
 30
0.0
 10
312.1997898415863
 20
67.50985426081371
 30
0.0
 10
312.1813189437123
 20
67.47497866232638
 30
0.0
 10
312.1790051855991
 20
67.44858985932177
 30
0.0
 10
312.177846231249
 20
67.43537178874689
 30
0.0
 11
312.3200533594491
 21
67.573359788051
 31
0.0
 11
312.2875048275467
 21
67.56899819052528
 31
0.0
 11
312.2571235309543
 21
67.55674779465255
 31
0.0
 11
312.2267482423146
 21
67.53620646929436
 31
0.0
 11
312.2016796803761
 21
67.50946445357016
 31
0.0
 11
312.1839056498559
 21
67.47437742533788
 31
0.0
 11
312.177846231249
 21
67.43537178874689
 31
0.0
  0
SPLINE
  5
2FB
330
B6
100
AcDbEntity
  8
0
  6
Continuous
 62
     7
100
AcDbSpline
210
0.0
220
0.0
230
1.0
 70
     8
 71
     3
 72
    13
 73
     9
 74
     7
 42
0.0000000001
 43
0.0000000001
 44
0.00000001
 40
0.0
 40
0.0
 40
0.0
 40
0.0
 40
0.1486423989487325
 40
0.2982382234602967
 40
0.4390496453782836
 40
0.5790300758310657
 40
0.7141201510145394
 40
0.847689038026595
 40
0.847689038026595
 40
0.847689038026595
 40
0.847689038026595
 10
313.919156115691
 20
65.8346951254879
 30
0.0
 10
313.9687889014745
 20
65.83754377285979
 30
0.0
 10
314.0683728288203
 20
65.84325933946434
 30
0.0
 10
314.2091774572082
 20
65.88776157804925
 30
0.0
 10
314.3372361377771
 20
65.95468621815219
 30
0.0
 10
314.4405101055121
 20
66.04941877068445
 30
0.0
 10
314.5119126736073
 20
66.1697354617208
 30
0.0
 10
314.5223620450487
 20
66.25952736208579
 30
0.0
 10
314.527557147799
 20
66.3041691045255
 30
0.0
 11
313.919156115691
 21
65.8346951254879
 31
0.0
 11
314.0670762642387
 21
65.84933043958965
 31
0.0
 11
314.2102098790074
 21
65.89282387627308
 31
0.0
 11
314.3340079508866
 21
65.95992003072004
 31
0.0
 11
314.4364821585145
 21
66.05528017795551
 31
0.0
 11
314.5029513467857
 21
66.17288619575922
 31
0.0
 11
314.527557147799
 21
66.3041691045255
 31
0.0
  0
SPLINE
  5
2FC
330
B6
100
AcDbEntity
  8
0
  6
Continuous
 62
     7
100
AcDbSpline
210
0.0
220
0.0
230
1.0
 70
     8
 71
     3
 72
    13
 73
     9
 74
     7
 42
0.0000000001
 43
0.0000000001
 44
0.00000001
 40
0.0
 40
0.0
 40
0.0
 40
0.0
 40
0.148642398948731
 40
0.2982382234602912
 40
0.4390496453782645
 40
0.5790300758310273
 40
0.7141201510145381
 40
0.8476890380266217
 40
0.8476890380266217
 40
0.8476890380266217
 40
0.8476890380266217
 10
313.919156115691
 20
68.01310147317159
 30
0.0
 10
313.9687889014743
 20
68.0102528257997
 30
0.0
 10
314.0683728288202
 20
68.00453725919513
 30
0.0
 10
314.2091774572082
 20
67.96003502061029
 30
0.0
 10
314.337236137777
 20
67.89311038050735
 30
0.0
 10
314.4405101055121
 20
67.7983778279751
 30
0.0
 10
314.5119126736073
 20
67.67806113693874
 30
0.0
 10
314.5223620450486
 20
67.5882692365737
 30
0.0
 10
314.527557147799
 20
67.543627494134
 30
0.0
 11
313.919156115691
 21
68.01310147317159
 31
0.0
 11
314.0670762642387
 21
67.99846615906985
 31
0.0
 11
314.2102098790074
 21
67.95497272238643
 31
0.0
 11
314.3340079508866
 21
67.8878765679395
 31
0.0
 11
314.4364821585145
 21
67.79251642070406
 31
0.0
 11
314.5029513467857
 21
67.67491040290031
 31
0.0
 11
314.527557147799
 21
67.543627494134
 31
0.0
  0
SPLINE
  5
2FD
330
B6
100
AcDbEntity
  8
0
  6
Continuous
 62
     7
100
AcDbSpline
210
0.0
220
0.0
230
1.0
 70
     8
 71
     3
 72
    13
 73
     9
 74
     7
 42
0.0000000001
 43
0.0000000001
 44
0.00000001
 40
0.0
 40
0.0
 40
0.0
 40
0.0
 40
0.1486423989486745
 40
0.298238223460289
 40
0.4390496453782123
 40
0.5790300758310167
 40
0.7141201510145555
 40
0.84768903802666
 40
0.84768903802666
 40
0.84768903802666
 40
0.84768903802666
 10
311.942117283525
 20
68.01310147317159
 30
0.0
 10
311.8924844977416
 20
68.01025282579971
 30
0.0
 10
311.7929005703958
 20
68.00453725919516
 30
0.0
 10
311.6520959420078
 20
67.96003502061029
 30
0.0
 10
311.5240372614391
 20
67.89311038050732
 30
0.0
 10
311.4207632937038
 20
67.79837782797512
 30
0.0
 10
311.3493607256087
 20
67.67806113693874
 30
0.0
 10
311.3389113541672
 20
67.58826923657371
 30
0.0
 10
311.3337162514169
 20
67.543627494134
 30
0.0
 11
311.942117283525
 21
68.01310147317159
 31
0.0
 11
311.7941971349774
 21
67.99846615906985
 31
0.0
 11
311.6510635202086
 21
67.95497272238643
 31
0.0
 11
311.5272654483295
 21
67.8878765679395
 31
0.0
 11
311.4247912407015
 21
67.79251642070406
 31
0.0
 11
311.3583220524303
 21
67.67491040290031
 31
0.0
 11
311.3337162514169
 21
67.543627494134
 31
0.0
  0
SPLINE
  5
2FE
330
B6
100
AcDbEntity
  8
0
  6
Continuous
 62
     7
100
AcDbSpline
210
0.0
220
0.0
230
1.0
 70
     8
 71
     3
 72
    13
 73
     9
 74
     7
 42
0.0000000001
 43
0.0000000001
 44
0.00000001
 40
0.0
 40
0.0
 40
0.0
 40
0.0
 40
0.1601947109559285
 40
0.3210951627357007
 40
0.4607710778824513
 40
0.6002079329853274
 40
0.7244156662360888
 40
0.8468166043869961
 40
0.8468166043869961
 40
0.8468166043869961
 40
0.8468166043869961
 10
326.743125653242
 20
68.797713960732
 30
0.0
 10
326.7966298929004
 20
68.79447299456923
 30
0.0
 10
326.9038740861551
 20
68.78797678410608
 30
0.0
 10
327.0507719839185
 20
68.73718136565584
 30
0.0
 10
327.1777319469595
 20
68.6614214035083
 30
0.0
 10
327.2726010630732
 20
68.56444067285503
 30
0.0
 10
327.3380363013125
 20
68.45023387144964
 30
0.0
 10
327.347608765033
 20
68.36783044363162
 30
0.0
 10
327.352359930242
 20
68.32693059686449
 30
0.0
 11
326.743125653242
 21
68.797713960732
 31
0.0
 11
326.90242467172
 21
68.78079745606412
 31
0.0
 11
327.0549311821978
 21
68.7295069145889
 31
0.0
 11
327.1740742175808
 21
68.6566076800811
 31
0.0
 11
327.2713367840968
 21
68.55669456925129
 31
0.0
 11
327.3301670527754
 21
68.447302794028
 31
0.0
 11
327.352359930242
 21
68.32693059686449
 31
0.0
  0
SPLINE
  5
2FF
330
B6
100
AcDbEntity
  8
0
  6
Continuous
 62
     7
100
AcDbSpline
210
0.0
220
0.0
230
1.0
 70
     8
 71
     3
 72
    13
 73
     9
 74
     7
 42
0.0000000001
 43
0.0000000001
 44
0.00000001
 40
0.0
 40
0.0
 40
0.0
 40
0.0
 40
0.1601947109559285
 40
0.3210951627357097
 40
0.4607710778824677
 40
0.6002079329853846
 40
0.7244156662361334
 40
0.846816604386943
 40
0.846816604386943
 40
0.846816604386943
 40
0.846816604386943
 10
326.743125653242
 20
65.05008263792749
 30
0.0
 10
326.7966298929003
 20
65.05332360409025
 30
0.0
 10
326.9038740861552
 20
65.05981981455344
 30
0.0
 10
327.0507719839184
 20
65.11061523300366
 30
0.0
 10
327.1777319469596
 20
65.18637519515124
 30
0.0
 10
327.2726010630731
 20
65.28335592580457
 30
0.0
 10
327.3380363013125
 20
65.39756272720989
 30
0.0
 10
327.347608765033
 20
65.47996615502787
 30
0.0
 10
327.352359930242
 20
65.52086600179499
 30
0.0
 11
326.743125653242
 21
65.05008263792749
 31
0.0
 11
326.90242467172
 21
65.06699914259536
 31
0.0
 11
327.0549311821978
 21
65.11828968407062
 31
0.0
 11
327.1740742175808
 21
65.19118891857843
 31
0.0
 11
327.2713367840968
 21
65.2911020294083
 31
0.0
 11
327.3301670527754
 21
65.40049380463157
 31
0.0
 11
327.352359930242
 21
65.52086600179499
 31
0.0
  0
SPLINE
  5
300
330
B6
100
AcDbEntity
  8
0
  6
Continuous
 62
     7
100
AcDbSpline
210
0.0
220
0.0
230
1.0
 70
     8
 71
     3
 72
    13
 73
     9
 74
     7
 42
0.0000000001
 43
0.0000000001
 44
0.00000001
 40
0.0
 40
0.0
 40
0.0
 40
0.0
 40
0.160194710955872
 40
0.3210951627356532
 40
0.4607710778825082
 40
0.600207932985544
 40
0.7244156662365352
 40
0.8468166043873859
 40
0.8468166043873859
 40
0.8468166043873859
 40
0.8468166043873859
 10
310.256991911788
 20
65.05008263792749
 30
0.0
 10
310.2034876721297
 20
65.05332360409025
 30
0.0
 10
310.096243478875
 20
65.05981981455342
 30
0.0
 10
309.9493455811115
 20
65.1106152330037
 30
0.0
 10
309.8223856180704
 20
65.1863751951512
 30
0.0
 10
309.7275165019568
 20
65.28335592580466
 30
0.0
 10
309.6620812637167
 20
65.39756272720977
 30
0.0
 10
309.652508799996
 20
65.47996615502785
 30
0.0
 10
309.647757634787
 20
65.52086600179499
 30
0.0
 11
310.256991911788
 21
65.05008263792749
 31
0.0
 11
310.09769289331
 21
65.06699914259536
 31
0.0
 11
309.9451863828322
 21
65.11828968407062
 31
0.0
 11
309.8260433474492
 21
65.19118891857843
 31
0.0
 11
309.7287807809329
 21
65.2911020294083
 31
0.0
 11
309.6699505122539
 21
65.40049380463157
 31
0.0
 11
309.647757634787
 21
65.52086600179499
 31
0.0
  0
SPLINE
  5
301
330
B6
100
AcDbEntity
  8
0
  6
Continuous
 62
     7
100
AcDbSpline
210
0.0
220
0.0
230
1.0
 70
     8
 71
     3
 72
    13
 73
     9
 74
     7
 42
0.0000000001
 43
0.0000000001
 44
0.00000001
 40
0.0
 40
0.0
 40
0.0
 40
0.0
 40
0.160194710955872
 40
0.3210951627356441
 40
0.4607710778824917
 40
0.6002079329854867
 40
0.7244156662364905
 40
0.846816604387439
 40
0.846816604387439
 40
0.846816604387439
 40
0.846816604387439
 10
310.256991911788
 20
68.797713960732
 30
0.0
 10
310.2034876721297
 20
68.79447299456922
 30
0.0
 10
310.096243478875
 20
68.78797678410606
 30
0.0
 10
309.9493455811115
 20
68.7371813656558
 30
0.0
 10
309.8223856180703
 20
68.66142140350829
 30
0.0
 10
309.7275165019568
 20
68.56444067285494
 30
0.0
 10
309.6620812637167
 20
68.45023387144974
 30
0.0
 10
309.6525087999961
 20
68.36783044363165
 30
0.0
 10
309.647757634787
 20
68.32693059686449
 30
0.0
 11
310.256991911788
 21
68.797713960732
 31
0.0
 11
310.09769289331
 21
68.78079745606412
 31
0.0
 11
309.9451863828322
 21
68.7295069145889
 31
0.0
 11
309.8260433474492
 21
68.6566076800811
 31
0.0
 11
309.7287807809329
 21
68.55669456925129
 31
0.0
 11
309.6699505122539
 21
68.447302794028
 31
0.0
 11
309.647757634787
 21
68.32693059686449
 31
0.0
  0
MTEXT
  5
303
330
B6
100
AcDbEntity
  8
1
 62
     7
100
AcDbMText
 10
222.2810880639971
 20
69.64202718851618
 30
0.0
 40
2.0
 41
0.0
 71
     5
 72
     1
  1
EMPB = Erstmusterpr\U+00fcfbericht /First sample test report
  7
CONVERTER_13
 73
     1
 44
1.02040816326531
  0
MTEXT
  5
304
330
B6
100
AcDbEntity
  8
0
 62
     7
100
AcDbMText
 10
227.674522857965
 20
52.44189436348611
 30
0.0
 40
1.3
 41
0.0
 71
     7
 72
     1
  1
Permissible deviations concerning length\P  of shorter side of angle [mm]
  7
CONVERTER_12
 73
     1
 44
0.78031212484994
  0
MTEXT
  5
305
330
B6
100
AcDbEntity
  8
1
 62
     3
100
AcDbMText
 10
257.174522857965
 20
47.10434813358803
 30
0.0
 40
1.3
 41
0.0
 71
     8
 72
     1
  1
\U+00b10\U+00b010'
  7
CONVERTER_12
 73
     1
 44
0.78031212484994
  0
MTEXT
  5
306
330
B6
100
AcDbEntity
  8
1
 62
     3
100
AcDbMText
 10
248.174522857965
 20
47.10434813358803
 30
0.0
 40
1.3
 41
0.0
 71
     8
 72
     1
  1
\U+00b10\U+00b020'
  7
CONVERTER_12
 73
     1
 44
0.78031212484994
  0
MTEXT
  5
307
330
B6
100
AcDbEntity
  8
1
 62
     3
100
AcDbMText
 10
239.674522857965
 20
47.10434813358803
 30
0.0
 40
1.3
 41
0.0
 71
     8
 72
     1
  1
\U+00b10\U+00b030'
  7
CONVERTER_12
 73
     1
 44
0.78031212484994
  0
MTEXT
  5
308
330
B6
100
AcDbEntity
  8
1
 62
     3
100
AcDbMText
 10
230.674522857965
 20
47.10434813358803
 30
0.0
 40
1.3
 41
0.0
 71
     8
 72
     1
  1
\U+00b11\U+00b0
  7
CONVERTER_12
 73
     1
 44
0.78031212484994
  0
MTEXT
  5
309
330
B6
100
AcDbEntity
  8
1
 62
     3
100
AcDbMText
 10
256.674522857965
 20
49.707404532742
 30
0.0
 40
1.3
 41
0.0
 71
     8
 72
     1
  1
120-400
  7
CONVERTER_12
 73
     1
 44
0.78031212484994
  0
MTEXT
  5
30A
330
B6
100
AcDbEntity
  8
1
 62
     3
100
AcDbMText
 10
248.174522857965
 20
49.707404532742
 30
0.0
 40
1.3
 41
0.0
 71
     8
 72
     1
  1
50-120
  7
CONVERTER_12
 73
     1
 44
0.78031212484994
  0
MTEXT
  5
30B
330
B6
100
AcDbEntity
  8
1
 62
     3
100
AcDbMText
 10
239.674522857965
 20
49.707404532742
 30
0.0
 40
1.3
 41
0.0
 71
     8
 72
     1
  1
10-50
  7
CONVERTER_12
 73
     1
 44
0.78031212484994
  0
MTEXT
  5
30C
330
B6
100
AcDbEntity
  8
1
 62
     3
100
AcDbMText
 10
230.674522857965
 20
49.86873541628601
 30
0.0
 40
1.3
 41
0.0
 71
     8
 72
     1
  1
<10
  7
CONVERTER_12
 73
     1
 44
0.78031212484994
  0
MTEXT
  5
30D
330
B6
100
AcDbEntity
  8
0
 62
     7
100
AcDbMText
 10
227.674522857965
 20
56.44189436348611
 30
0.0
 40
1.3
 41
0.0
 71
     7
 72
     1
  1
Grenzabma\U+00dfe f\U+00fcr L\U+00e4nge des k\U+00fcrzeren\P  Schenkels [mm]
  7
CONVERTER_12
 73
     1
 44
0.78031212484994
  0
MTEXT
  5
30E
330
B6
100
AcDbEntity
  8
0
 62
     3
100
AcDbMText
 10
227.674522857965
 20
60.641894363486
 30
0.0
 40
1.5
 41
0.0
 71
     7
 72
     1
  1
DIN ISO 2768-1 -m\PWinkelma\U+00dfe / angular dimensions
  7
CONVERTER_12
 73
     1
 44
0.78031212484994
  0
MTEXT
  5
30F
330
B6
100
AcDbEntity
  8
1
 62
     3
100
AcDbMText
 10
222.674522857965
 20
47.10434813358803
 30
0.0
 40
1.3
 41
0.0
 71
     8
 72
     1
  1
\U+00b10,8
  7
CONVERTER_12
 73
     1
 44
0.78031212484994
  0
MTEXT
  5
310
330
B6
100
AcDbEntity
  8
1
 62
     3
100
AcDbMText
 10
214.674522857965
 20
47.10434813358803
 30
0.0
 40
1.3
 41
0.0
 71
     8
 72
     1
  1
\U+00b10,5
  7
CONVERTER_12
 73
     1
 44
0.78031212484994
  0
MTEXT
  5
311
330
B6
100
AcDbEntity
  8
1
 62
     3
100
AcDbMText
 10
206.674522857965
 20
47.10434813358803
 30
0.0
 40
1.3
 41
0.0
 71
     8
 72
     1
  1
\U+00b10,3
  7
CONVERTER_12
 73
     1
 44
0.78031212484994
  0
MTEXT
  5
312
330
B6
100
AcDbEntity
  8
1
 62
     3
100
AcDbMText
 10
198.674522857965
 20
47.10434813358803
 30
0.0
 40
1.3
 41
0.0
 71
     8
 72
     1
  1
\U+00b10,2
  7
CONVERTER_12
 73
     1
 44
0.78031212484994
  0
MTEXT
  5
313
330
B6
100
AcDbEntity
  8
1
 62
     3
100
AcDbMText
 10
222.674522857965
 20
49.707404532742
 30
0.0
 40
1.3
 41
0.0
 71
     8
 72
     1
  1
400-1000
  7
CONVERTER_12
 73
     1
 44
0.78031212484994
  0
MTEXT
  5
314
330
B6
100
AcDbEntity
  8
1
 62
     3
100
AcDbMText
 10
214.674522857965
 20
49.707404532742
 30
0.0
 40
1.3
 41
0.0
 71
     8
 72
     1
  1
120-400
  7
CONVERTER_12
 73
     1
 44
0.78031212484994
  0
MTEXT
  5
315
330
B6
100
AcDbEntity
  8
1
 62
     3
100
AcDbMText
 10
206.674522857965
 20
49.707404532742
 30
0.0
 40
1.3
 41
0.0
 71
     8
 72
     1
  1
30-120
  7
CONVERTER_12
 73
     1
 44
0.78031212484994
  0
MTEXT
  5
316
330
B6
100
AcDbEntity
  8
1
 62
     3
100
AcDbMText
 10
198.674522857965
 20
49.707404532742
 30
0.0
 40
1.3
 41
0.0
 71
     8
 72
     1
  1
6-30
  7
CONVERTER_12
 73
     1
 44
0.78031212484994
  0
MTEXT
  5
317
330
B6
100
AcDbEntity
  8
1
 62
     3
100
AcDbMText
 10
190.674522857965
 20
47.10434813358803
 30
0.0
 40
1.3
 41
0.0
 71
     8
 72
     1
  1
\U+00b10,1
  7
CONVERTER_12
 73
     1
 44
0.78031212484994
  0
MTEXT
  5
318
330
B6
100
AcDbEntity
  8
1
 62
     3
100
AcDbMText
 10
190.674522857965
 20
49.86873541628601
 30
0.0
 40
1.3
 41
0.0
 71
     8
 72
     1
  1
<6
  7
CONVERTER_12
 73
     1
 44
0.78031212484994
  0
MTEXT
  5
319
330
B6
100
AcDbEntity
  8
0
 62
     3
100
AcDbMText
 10
187.674522857965
 20
58.24189436348601
 30
0.0
 40
1.5
 41
0.0
 71
     7
 72
     1
  1
DIN ISO 2768-1 -m\PL\U+00e4ngenma\U+00dfe / linear dimensions\PRundungen / curves
  7
CONVERTER_12
 73
     1
 44
0.90036014405762
  0
MTEXT
  5
31A
330
B6
100
AcDbEntity
  8
0
 62
     7
100
AcDbMText
 10
187.6745228579648
 20
52.84189436348613
 30
0.0
 40
1.3
 41
0.0
 71
     7
 72
     1
  1
Grenzabma\U+00dfe f\U+00fcr Nennma\U+00dfbereiche [mm]\PPermissible deviations for basic size range [mm]
  7
CONVERTER_12
 73
     1
 44
0.78031212484994
  0
TEXT
  5
31C
330
B6
100
AcDbEntity
  8
1
 62
     3
100
AcDbText
 10
192.833924815904
 20
39.03905783606695
 30
0.0
 40
1.2
  1
[^Cm]
 50
-0.00000000000001
 41
0.72
  7
CONVERTER_14
100
AcDbText
  0
TEXT
  5
31D
330
B6
100
AcDbEntity
  8
1
 62
     3
100
AcDbText
 10
192.833924815904
 20
29.03905783606695
 30
0.0
 40
1.2
  1
[^Cm]
 50
-0.00000000000001
 41
0.72
  7
CONVERTER_14
100
AcDbText
  0
MTEXT
  5
31E
330
B6
100
AcDbEntity
  8
1
 62
     3
100
AcDbMText
 10
200.212017607965
 20
41.00961336969999
 30
0.0
 40
1.5
 41
0.0
 71
     8
 72
     1
  1
16
  7
CONVERTER_12
 73
     1
 44
0.78031212484994
  0
MTEXT
  5
31F
330
B6
100
AcDbEntity
  8
1
 62
     3
100
AcDbMText
 10
204.4870191079651
 20
41.00961336969999
 30
0.0
 40
1.5
 41
0.0
 71
     8
 72
     1
  1
10
  7
CONVERTER_12
 73
     1
 44
0.78031212484994
  0
MTEXT
  5
320
330
B6
100
AcDbEntity
  8
1
 62
     3
100
AcDbMText
 10
209.762020607965
 20
41.00961336969999
 30
0.0
 40
1.5
 41
0.0
 71
     8
 72
     1
  1
2
  7
CONVERTER_12
 73
     1
 44
0.78031212484994
  0
MTEXT
  5
321
330
B6
100
AcDbEntity
  8
1
 62
     3
100
AcDbMText
 10
215.037022107965
 20
41.00961336969999
 30
0.0
 40
1.5
 41
0.0
 71
     8
 72
     1
  1
0,25
  7
CONVERTER_12
 73
     1
 44
0.78031212484994
  0
MTEXT
  5
322
330
B6
100
AcDbEntity
  8
1
 62
     3
100
AcDbMText
 10
200.212017607965
 20
32.00961336969999
 30
0.0
 40
1.5
 41
0.0
 71
     8
 72
     1
  1
40
  7
CONVERTER_12
 73
     1
 44
0.78031212484994
  0
MTEXT
  5
323
330
B6
100
AcDbEntity
  8
1
 62
     3
100
AcDbMText
 10
204.4870191079651
 20
32.00961336969999
 30
0.0
 40
1.5
 41
0.0
 71
     8
 72
     1
  1
25
  7
CONVERTER_12
 73
     1
 44
0.78031212484994
  0
MTEXT
  5
324
330
B6
100
AcDbEntity
  8
1
 62
     3
100
AcDbMText
 10
209.762020607965
 20
32.00961336969999
 30
0.0
 40
1.5
 41
0.0
 71
     8
 72
     1
  1
6,3
  7
CONVERTER_12
 73
     1
 44
0.78031212484994
  0
MTEXT
  5
325
330
B6
100
AcDbEntity
  8
1
 62
     3
100
AcDbMText
 10
215.037022107965
 20
32.00961336969999
 30
0.0
 40
1.5
 41
0.0
 71
     8
 72
     1
  1
1
  7
CONVERTER_12
 73
     1
 44
0.78031212484994
  0
MTEXT
  5
326
330
B6
100
AcDbEntity
  8
0
 62
     7
100
AcDbMText
 10
219.674522857965
 20
34.04189436348612
 30
0.0
 40
1.3
 41
0.0
 71
     7
 72
     1
  1
Grenzabma\U+00dfe f\U+00fcr Nennma\U+00dfbereiche [mm]\PPermissible deviations for basic size range [mm]
  7
CONVERTER_12
 73
     1
 44
0.78031212484994
  0
MTEXT
  5
327
330
B6
100
AcDbEntity
  8
0
 62
     3
100
AcDbMText
 10
219.174522857965
 20
38.04189436348612
 30
0.0
 40
1.5
 41
0.0
 71
     7
 72
     1
  1
Mittenabweichung/Symmetrietoleranz f\U+00fcr Ma\U+00dfe\P  ohne Toleranzangabe\Pcenter deviation/symmetry tolerance for\P  dimensions without individual indication
  7
CONVERTER_12
 73
     1
 44
0.78031212484994
  0
MTEXT
  5
328
330
B6
100
AcDbEntity
  8
1
 62
     3
100
AcDbMText
 10
222.674522857965
 20
31.36873541628598
 30
0.0
 40
1.3
 41
0.0
 71
     8
 72
     1
  1
<6
  7
CONVERTER_12
 73
     1
 44
0.78031212484994
  0
MTEXT
  5
329
330
B6
100
AcDbEntity
  8
1
 62
     3
100
AcDbMText
 10
231.174522857965
 20
31.20740453274199
 30
0.0
 40
1.3
 41
0.0
 71
     8
 72
     1
  1
6-30
  7
CONVERTER_12
 73
     1
 44
0.78031212484994
  0
MTEXT
  5
32A
330
B6
100
AcDbEntity
  8
1
 62
     3
100
AcDbMText
 10
239.674522857965
 20
31.20740453274199
 30
0.0
 40
1.3
 41
0.0
 71
     8
 72
     1
  1
30-120
  7
CONVERTER_12
 73
     1
 44
0.78031212484994
  0
MTEXT
  5
32B
330
B6
100
AcDbEntity
  8
1
 62
     3
100
AcDbMText
 10
248.174522857965
 20
31.20740453274199
 30
0.0
 40
1.3
 41
0.0
 71
     8
 72
     1
  1
120-400
  7
CONVERTER_12
 73
     1
 44
0.78031212484994
  0
MTEXT
  5
32C
330
B6
100
AcDbEntity
  8
1
 62
     3
100
AcDbMText
 10
256.174522857965
 20
31.20740453274199
 30
0.0
 40
1.3
 41
0.0
 71
     8
 72
     1
  1
400-1000
  7
CONVERTER_12
 73
     1
 44
0.78031212484994
  0
MTEXT
  5
32D
330
B6
100
AcDbEntity
  8
1
 62
     3
100
AcDbMText
 10
256.674522857965
 20
28.60434813358803
 30
0.0
 40
1.3
 41
0.0
 71
     8
 72
     1
  1
\U+00b10,4
  7
CONVERTER_12
 73
     1
 44
0.78031212484994
  0
MTEXT
  5
32E
330
B6
100
AcDbEntity
  8
1
 62
     3
100
AcDbMText
 10
222.674522857965
 20
28.60434813358803
 30
0.0
 40
1.3
 41
0.0
 71
     8
 72
     1
  1
\U+00b10,05
  7
CONVERTER_12
 73
     1
 44
0.78031212484994
  0
MTEXT
  5
32F
330
B6
100
AcDbEntity
  8
1
 62
     3
100
AcDbMText
 10
231.174522857965
 20
28.60434813358803
 30
0.0
 40
1.3
 41
0.0
 71
     8
 72
     1
  1
\U+00b10,1
  7
CONVERTER_12
 73
     1
 44
0.78031212484994
  0
MTEXT
  5
330
330
B6
100
AcDbEntity
  8
1
 62
     3
100
AcDbMText
 10
239.674522857965
 20
28.60434813358803
 30
0.0
 40
1.3
 41
0.0
 71
     8
 72
     1
  1
\U+00b10,15
  7
CONVERTER_12
 73
     1
 44
0.78031212484994
  0
MTEXT
  5
331
330
B6
100
AcDbEntity
  8
1
 62
     3
100
AcDbMText
 10
248.674522857965
 20
28.60434813358803
 30
0.0
 40
1.3
 41
0.0
 71
     8
 72
     1
  1
\U+00b10,25
  7
CONVERTER_12
 73
     1
 44
0.78031212484994
  0
TEXT
  5
332
330
B6
100
AcDbEntity
  8
1
 62
     3
100
AcDbText
 10
193.2336621300831
 20
32.96448618763611
 30
0.0
 40
1.5
  1
Rt
 50
-0.00000000000001
 41
0.9
  7
CONVERTER_11
100
AcDbText
  0
TEXT
  5
333
330
B6
100
AcDbEntity
  8
1
 62
     3
100
AcDbText
 10
187.8515737388761
 20
41.49599949992422
 30
0.0
 40
1.5
  1
Ra
 50
-0.00000000000001
 41
0.9
  7
CONVERTER_11
100
AcDbText
  0
MTEXT
  5
335
330
B6
100
AcDbEntity
  8
0
 62
     7
100
AcDbMText
 10
34.87884703056034
 20
29.26277074609601
 30
0.0
 40
1.3
 41
0.0
 71
     7
 72
     1
  3
Diese Zeichnung entspricht dem Entwicklungsstand des Zeichnungsdatums bzw. der letzten \U+00c4nderungseintragung. Aus der \PBen\U+00fctzung der Zeichnung k\U+00f6nnen keine Anspr\U+00fcche, gleich welcher Art, einschlie\U+00dflich Schadenersatzanspr
  3
\U+00fcche, abgeleitet \Pund gegen GEZE geltend gemacht werden. Die Zeichnung bleibt unser Eigentum und ist Dritten nur f\U+00fcr die Vertragsdauer zur \PBenutzung \U+00fcberlassen. S\U+00e4mtliche sich aus der Zeichnung ergebenden Anspr\U+00fcche s
  3
tehen ausschlie\U+00dflich GEZE zu. \POhne vorherige Zustimmung von GEZE darf diese Zeichnung weder vervielf\U+00e4ltig noch Dritten zug\U+00e4nglich gemacht werden.\PThis drawing shows the actual state of product development at the date of the draw
  3
ing or the revision date. No claims or \Pdamages in any form can bei made against GEZE as a result of the interpretation of this drawing. This drawing remains the \Pproperty of GEZE and ist made available to third paries only for the duration of con
  1
tractural obligations. All rights connected \Pwith this drawing remain in possession of GEZE. This drawing may not bei copied of handed over to third parties without the \Pexpress consent of GEZE.
  7
CONVERTER_15
 73
     1
 44
0.84033613445378
  0
TEXT
  5
337
330
B6
100
AcDbEntity
  8
0
 62
     3
100
AcDbText
 10
30.674522857965
 20
57.79189436348599
 30
0.0
 40
1.798828
  1
A
 41
0.99
  7
CONVERTER_16
100
AcDbText
  0
TEXT
  5
338
330
B6
100
AcDbEntity
  8
0
 62
     3
100
AcDbText
 10
30.674522857965
 20
99.791894363486
 30
0.0
 40
1.798828
  1
B
 41
0.99
  7
CONVERTER_16
100
AcDbText
  0
TEXT
  5
339
330
B6
100
AcDbEntity
  8
0
 62
     3
100
AcDbText
 10
30.674522857965
 20
144.791894363486
 30
0.0
 40
1.798828
  1
C
 41
0.99
  7
CONVERTER_16
100
AcDbText
  0
TEXT
  5
33A
330
B6
100
AcDbEntity
  8
0
 62
     3
100
AcDbText
 10
30.674522857965
 20
189.791894363486
 30
0.0
 40
1.798828
  1
D
 41
0.99
  7
CONVERTER_16
100
AcDbText
  0
TEXT
  5
33B
330
B6
100
AcDbEntity
  8
0
 62
     3
100
AcDbText
 10
30.674522857965
 20
234.791894363486
 30
0.0
 40
1.798828
  1
E
 41
0.99
  7
CONVERTER_16
100
AcDbText
  0
TEXT
  5
33C
330
B6
100
AcDbEntity
  8
0
 62
     3
100
AcDbText
 10
30.674522857965
 20
284.791894363486
 30
0.0
 40
1.798828
  1
F
 41
0.99
  7
CONVERTER_16
100
AcDbText
  0
TEXT
  5
33D
330
B6
100
AcDbEntity
  8
0
 62
     3
100
AcDbText
 10
49.674522857965
 20
309.791894363486
 30
0.0
 40
1.798828
  1
8                            7                           6
 41
0.99
  7
CONVERTER_16
100
AcDbText
  0
TEXT
  5
33E
330
B6
100
AcDbEntity
  8
0
 62
     3
100
AcDbText
 10
207.674522857965
 20
309.791894363486
 30
0.0
 40
1.798828
  1
5                         4                             3
 41
0.99
  7
CONVERTER_16
100
AcDbText
  0
TEXT
  5
33F
330
B6
100
AcDbEntity
  8
0
 62
     3
100
AcDbText
 10
359.674522857965
 20
309.791894363486
 30
0.0
 40
1.798828
  1
2
 41
0.99
  7
CONVERTER_16
100
AcDbText
  0
TEXT
  5
340
330
B6
100
AcDbEntity
  8
0
 62
     3
100
AcDbText
 10
411.674522857965
 20
309.791894363486
 30
0.0
 40
1.798828
  1
1
 41
0.99
  7
CONVERTER_16
100
AcDbText
  0
MTEXT
  5
341
330
B6
100
AcDbEntity
  8
0
 62
     4
100
AcDbMText
 10
262.874522857965
 20
68.64179536348598
 30
0.0
 40
2.0
 41
0.0
 71
     5
 72
     1
  1
 
  7
CONVERTER_11
 73
     1
 44
1.02040816326531
  0
MTEXT
  5
342
330
B6
100
AcDbEntity
  8
0
 62
     4
100
AcDbMText
 10
262.874522857965
 20
64.341807363486
 30
0.0
 40
2.0
 41
0.0
 71
     5
 72
     1
  1
 
  7
CONVERTER_11
 73
     1
 44
1.02040816326531
  0
MTEXT
  5
343
330
B6
100
AcDbEntity
  8
0
 62
     4
100
AcDbMText
 10
262.874522857965
 20
60.04181936348599
 30
0.0
 40
2.0
 41
0.0
 71
     5
 72
     1
  1
 
  7
CONVERTER_11
 73
     1
 44
1.02040816326531
  0
MTEXT
  5
344
330
B6
100
AcDbEntity
  8
0
 62
     4
100
AcDbMText
 10
262.874522857965
 20
55.74183136348601
 30
0.0
 40
2.0
 41
0.0
 71
     5
 72
     1
  1
 
  7
CONVERTER_11
 73
     1
 44
1.02040816326531
  0
MTEXT
  5
345
330
B6
100
AcDbEntity
  8
0
 62
     4
100
AcDbMText
 10
262.874522857965
 20
51.44184336348599
 30
0.0
 40
2.0
 41
0.0
 71
     5
 72
     1
  1
 
  7
CONVERTER_11
 73
     1
 44
1.02040816326531
  0
MTEXT
  5
346
330
B6
100
AcDbEntity
  8
0
 62
     4
100
AcDbMText
 10
262.874522857965
 20
47.141855363486
 30
0.0
 40
2.0
 41
0.0
 71
     5
 72
     1
  1
 
  7
CONVERTER_11
 73
     1
 44
1.02040816326531
  0
MTEXT
  5
347
330
B6
100
AcDbEntity
  8
0
 62
     4
100
AcDbMText
 10
262.874522857965
 20
42.84186736348598
 30
0.0
 40
2.0
 41
0.0
 71
     5
 72
     1
  1
 
  7
CONVERTER_11
 73
     1
 44
1.02040816326531
  0
MTEXT
  5
348
330
B6
100
AcDbEntity
  8
0
 62
     4
100
AcDbMText
 10
262.874522857965
 20
38.541879363486
 30
0.0
 40
2.0
 41
0.0
 71
     5
 72
     1
  1
 
  7
CONVERTER_11
 73
     1
 44
1.02040816326531
  0
MTEXT
  5
349
330
B6
100
AcDbEntity
  8
0
 62
     4
100
AcDbMText
 10
262.874522857965
 20
34.24189136348599
 30
0.0
 40
2.0
 41
0.0
 71
     5
 72
     1
  1
 
  7
CONVERTER_11
 73
     1
 44
1.02040816326531
  0
TEXT
  5
34A
330
B6
100
AcDbEntity
  8
0
 62
     4
100
AcDbText
 10
308.7021185778231
 20
54.93275941538909
 30
0.0
 40
2.5
  1
vertraulich / confidential
 41
0.765
  7
CONVERTER_13
100
AcDbText
  0
MTEXT
  5
34B
330
B6
100
AcDbEntity
  8
0
 62
     7
100
AcDbMText
 10
263.274522857965
 20
29.89652069060471
 30
0.0
 40
1.3
 41
0.0
 71
     8
 72
     1
  1
EMPB
  7
CONVERTER_12
 73
     1
 44
0.7202881152461
  0
MTEXT
  5
34C
330
B6
100
AcDbEntity
  8
0
 62
     4
100
AcDbMText
 10
375.2972382716441
 20
50.29189436348599
 30
0.0
 40
3.5
 41
0.0
 71
     5
 72
     1
  1
1
  7
CONVERTER_11
 73
     1
 44
1.02040816326531
  0
MTEXT
  5
34D
330
B6
100
AcDbEntity
  8
0
 62
     4
100
AcDbMText
 10
382.090326302289
 20
50.29189436348599
 30
0.0
 40
3.5
 41
0.0
 71
     5
 72
     1
  1
1
  7
CONVERTER_11
 73
     1
 44
1.02040816326531
  0
MTEXT
  5
34E
330
B6
100
AcDbEntity
  8
0
 62
     1
100
AcDbMText
 10
414.674522857965
 20
33.17741344921387
 30
0.0
 40
5.0
 41
0.0
 71
     5
 72
     1
  1
20522-1-0101
  7
CONVERTER_12
 73
     1
 44
1.02040816326531
  0
MTEXT
  5
34F
330
B6
100
AcDbEntity
  8
0
 62
     1
100
AcDbMText
 10
414.674522857965
 20
46.3020455455442
 30
0.0
 40
5.0
 41
0.0
 71
     5
 72
     1
  1
 
  7
CONVERTER_11
 73
     1
 44
1.02040816326531
  0
MTEXT
  5
350
330
B6
100
AcDbEntity
  8
0
 62
     1
100
AcDbMText
 10
395.674522857965
 20
64.23113190732818
 30
0.0
 40
4.5
 41
0.0
 71
     5
 72
     1
  1
KLEMMPLATTE MONTIERT
  7
CONVERTER_12
 73
     1
 44
1.02040816326531
  0
MTEXT
  5
351
330
B6
100
AcDbEntity
  8
0
 62
     4
100
AcDbMText
 10
395.674522857965
 20
57.3428653024345
 30
0.0
 40
3.5
 41
0.0
 71
     5
 72
     1
  1
TS3000V/GANZGLAS
  7
CONVERTER_12
 73
     1
 44
1.02040816326531
  0
MTEXT
  5
352
330
B6
100
AcDbEntity
  8
0
 62
     3
100
AcDbMText
 10
349.801801176147
 20
43.28006349418911
 30
0.0
 40
2.5
 41
0.0
 71
     5
 72
     1
  1
tbm2
  7
CONVERTER_12
 73
     1
 44
1.02040816326531
  0
MTEXT
  5
353
330
B6
100
AcDbEntity
  8
0
 62
     3
100
AcDbMText
 10
338.41753104438
 20
37.70203003196249
 30
0.0
 40
2.5
 41
0.0
 71
     5
 72
     1
  1
GL.NR.V.04.02.1992
  7
CONVERTER_11
 73
     1
 44
1.02040816326531
  0
MTEXT
  5
354
330
B6
100
AcDbEntity
  8
0
 62
     3
100
AcDbMText
 10
338.41753104438
 20
30.20203003196249
 30
0.0
 40
2.5
 41
0.0
 71
     5
 72
     1
  1
 
  7
CONVERTER_11
 73
     1
 44
1.02040816326531
  0
MTEXT
  5
356
330
B6
100
AcDbEntity
  8
0
 62
     3
100
AcDbMText
 10
332.709752926147
 20
43.28006349418911
 30
0.0
 40
2.5
 41
0.0
 71
     5
 72
     1
  1
27.05.2008
  7
CONVERTER_17
 73
     1
 44
1.02040816326531
  0
MTEXT
  5
357
330
B6
100
AcDbEntity
  8
0
 62
     1
100
AcDbMText
 10
371.853226342182
 20
44.00314467088911
 30
0.0
 40
5.0
 41
0.0
 71
     5
 72
     1
  1
1:1
  7
CONVERTER_11
 73
     1
 44
1.02040816326531
  0
MTEXT
  5
358
330
B6
100
AcDbEntity
  8
0
 62
     3
100
AcDbMText
 10
349.801801176147
 20
47.60550958132438
 30
0.0
 40
2.5
 41
0.0
 71
     5
 72
     1
  1
tbm6
  7
CONVERTER_12
 73
     1
 44
1.02040816326531
  0
MTEXT
  5
359
330
B6
100
AcDbEntity
  8
0
 62
     3
100
AcDbMText
 10
332.709752926147
 20
47.60550958132438
 30
0.0
 40
2.5
 41
0.0
 71
     5
 72
     1
  1
21.05.2008
  7
CONVERTER_17
 73
     1
 44
1.02040816326531
  0
MTEXT
  5
35A
330
B6
100
AcDbEntity
  8
0
 62
     7
100
AcDbMText
 10
269.874522857965
 20
64.341807363486
 30
0.0
 40
2.0
 41
0.0
 71
     5
 72
     1
  1
 
  7
CONVERTER_11
 73
     1
 44
1.02040816326531
  0
MTEXT
  5
35B
330
B6
100
AcDbEntity
  8
0
 62
     7
100
AcDbMText
 10
300.674522857965
 20
64.341807363486
 30
0.0
 40
2.0
 41
0.0
 71
     5
 72
     1
  1
 
  7
CONVERTER_11
 73
     1
 44
1.02040816326531
  0
MTEXT
  5
35C
330
B6
100
AcDbEntity
  8
0
 62
     7
100
AcDbMText
 10
300.674522857965
 20
60.04181936348599
 30
0.0
 40
2.0
 41
0.0
 71
     5
 72
     1
  1
 
  7
CONVERTER_11
 73
     1
 44
1.02040816326531
  0
MTEXT
  5
35D
330
B6
100
AcDbEntity
  8
0
 62
     7
100
AcDbMText
 10
300.674522857965
 20
55.74183136348601
 30
0.0
 40
2.0
 41
0.0
 71
     5
 72
     1
  1
 
  7
CONVERTER_11
 73
     1
 44
1.02040816326531
  0
MTEXT
  5
35E
330
B6
100
AcDbEntity
  8
0
 62
     7
100
AcDbMText
 10
300.674522857965
 20
51.44184336348599
 30
0.0
 40
2.0
 41
0.0
 71
     5
 72
     1
  1
 
  7
CONVERTER_11
 73
     1
 44
1.02040816326531
  0
MTEXT
  5
35F
330
B6
100
AcDbEntity
  8
0
 62
     7
100
AcDbMText
 10
289.474522857965
 20
68.64179536348598
 30
0.0
 40
2.0
 41
0.0
 71
     5
 72
     1
  1
 
  7
CONVERTER_12
 73
     1
 44
1.02040816326531
  0
MTEXT
  5
360
330
B6
100
AcDbEntity
  8
0
 62
     7
100
AcDbMText
 10
289.474522857965
 20
51.44184336348599
 30
0.0
 40
2.0
 41
0.0
 71
     5
 72
     1
  1
 
  7
CONVERTER_12
 73
     1
 44
1.02040816326531
  0
MTEXT
  5
361
330
B6
100
AcDbEntity
  8
0
 62
     7
100
AcDbMText
 10
289.474522857965
 20
42.84186736348598
 30
0.0
 40
2.0
 41
0.0
 71
     5
 72
     1
  1
 
  7
CONVERTER_12
 73
     1
 44
1.02040816326531
  0
MTEXT
  5
362
330
B6
100
AcDbEntity
  8
0
 62
     7
100
AcDbMText
 10
289.474522857965
 20
38.541879363486
 30
0.0
 40
2.0
 41
0.0
 71
     5
 72
     1
  1
 
  7
CONVERTER_12
 73
     1
 44
1.02040816326531
  0
MTEXT
  5
363
330
B6
100
AcDbEntity
  8
0
 62
     7
100
AcDbMText
 10
279.674522857965
 20
68.64179536348598
 30
0.0
 40
2.0
 41
0.0
 71
     5
 72
     1
  1
 
  7
CONVERTER_17
 73
     1
 44
1.02040816326531
  0
MTEXT
  5
364
330
B6
100
AcDbEntity
  8
0
 62
     7
100
AcDbMText
 10
279.674522857965
 20
60.04181936348599
 30
0.0
 40
2.0
 41
0.0
 71
     5
 72
     1
  1
 
  7
CONVERTER_17
 73
     1
 44
1.02040816326531
  0
MTEXT
  5
365
330
B6
100
AcDbEntity
  8
0
 62
     7
100
AcDbMText
 10
279.674522857965
 20
55.74183136348601
 30
0.0
 40
2.0
 41
0.0
 71
     5
 72
     1
  1
 
  7
CONVERTER_17
 73
     1
 44
1.02040816326531
  0
MTEXT
  5
366
330
B6
100
AcDbEntity
  8
0
 62
     7
100
AcDbMText
 10
279.674522857965
 20
47.141855363486
 30
0.0
 40
2.0
 41
0.0
 71
     5
 72
     1
  1
 
  7
CONVERTER_17
 73
     1
 44
1.02040816326531
  0
MTEXT
  5
367
330
B6
100
AcDbEntity
  8
0
 62
     7
100
AcDbMText
 10
279.674522857965
 20
38.541879363486
 30
0.0
 40
2.0
 41
0.0
 71
     5
 72
     1
  1
 
  7
CONVERTER_17
 73
     1
 44
1.02040816326531
  0
MTEXT
  5
368
330
B6
100
AcDbEntity
  8
0
 62
     7
100
AcDbMText
 10
300.674522857965
 20
34.24189136348599
 30
0.0
 40
2.0
 41
0.0
 71
     5
 72
     1
  1
48320
  7
CONVERTER_11
 73
     1
 44
1.02040816326531
  0
MTEXT
  5
369
330
B6
100
AcDbEntity
  8
0
 62
     7
100
AcDbMText
 10
279.674522857965
 20
42.84186736348598
 30
0.0
 40
2.0
 41
0.0
 71
     5
 72
     1
  1
 
  7
CONVERTER_17
 73
     1
 44
1.02040816326531
  0
MTEXT
  5
36A
330
B6
100
AcDbEntity
  8
0
 62
     7
100
AcDbMText
 10
300.674522857965
 20
47.141855363486
 30
0.0
 40
2.0
 41
0.0
 71
     5
 72
     1
  1
 
  7
CONVERTER_11
 73
     1
 44
1.02040816326531
  0
MTEXT
  5
36B
330
B6
100
AcDbEntity
  8
0
 62
     7
100
AcDbMText
 10
289.474522857965
 20
34.24189136348599
 30
0.0
 40
2.0
 41
0.0
 71
     5
 72
     1
  1
tbm6
  7
CONVERTER_12
 73
     1
 44
1.02040816326531
  0
MTEXT
  5
36C
330
B6
100
AcDbEntity
  8
0
 62
     7
100
AcDbMText
 10
279.674522857965
 20
34.24189136348599
 30
0.0
 40
2.0
 41
0.0
 71
     5
 72
     1
  1
21.05.2008
  7
CONVERTER_17
 73
     1
 44
1.02040816326531
  0
MTEXT
  5
36D
330
B6
100
AcDbEntity
  8
0
 62
     7
100
AcDbMText
 10
300.674522857965
 20
38.541879363486
 30
0.0
 40
2.0
 41
0.0
 71
     5
 72
     1
  1
 
  7
CONVERTER_11
 73
     1
 44
1.02040816326531
  0
MTEXT
  5
36E
330
B6
100
AcDbEntity
  8
0
 62
     7
100
AcDbMText
 10
300.674522857965
 20
42.84186736348598
 30
0.0
 40
2.0
 41
0.0
 71
     5
 72
     1
  1
 
  7
CONVERTER_11
 73
     1
 44
1.02040816326531
  0
MTEXT
  5
36F
330
B6
100
AcDbEntity
  8
0
 62
     7
100
AcDbMText
 10
289.474522857965
 20
47.141855363486
 30
0.0
 40
2.0
 41
0.0
 71
     5
 72
     1
  1
 
  7
CONVERTER_12
 73
     1
 44
1.02040816326531
  0
MTEXT
  5
370
330
B6
100
AcDbEntity
  8
0
 62
     7
100
AcDbMText
 10
279.674522857965
 20
51.44184336348599
 30
0.0
 40
2.0
 41
0.0
 71
     5
 72
     1
  1
 
  7
CONVERTER_17
 73
     1
 44
1.02040816326531
  0
MTEXT
  5
371
330
B6
100
AcDbEntity
  8
0
 62
     7
100
AcDbMText
 10
289.474522857965
 20
55.74183136348601
 30
0.0
 40
2.0
 41
0.0
 71
     5
 72
     1
  1
 
  7
CONVERTER_12
 73
     1
 44
1.02040816326531
  0
MTEXT
  5
372
330
B6
100
AcDbEntity
  8
0
 62
     7
100
AcDbMText
 10
289.474522857965
 20
60.04181936348599
 30
0.0
 40
2.0
 41
0.0
 71
     5
 72
     1
  1
 
  7
CONVERTER_12
 73
     1
 44
1.02040816326531
  0
MTEXT
  5
373
330
B6
100
AcDbEntity
  8
0
 62
     7
100
AcDbMText
 10
289.474522857965
 20
64.341807363486
 30
0.0
 40
2.0
 41
0.0
 71
     5
 72
     1
  1
 
  7
CONVERTER_12
 73
     1
 44
1.02040816326531
  0
MTEXT
  5
374
330
B6
100
AcDbEntity
  8
0
 62
     7
100
AcDbMText
 10
300.674522857965
 20
68.64179536348598
 30
0.0
 40
2.0
 41
0.0
 71
     5
 72
     1
  1
 
  7
CONVERTER_11
 73
     1
 44
1.02040816326531
  0
MTEXT
  5
375
330
B6
100
AcDbEntity
  8
0
 62
     7
100
AcDbMText
 10
269.874522857965
 20
68.64179536348598
 30
0.0
 40
2.0
 41
0.0
 71
     5
 72
     1
  1
 
  7
CONVERTER_11
 73
     1
 44
1.02040816326531
  0
MTEXT
  5
376
330
B6
100
AcDbEntity
  8
0
 62
     7
100
AcDbMText
 10
279.674522857965
 20
64.341807363486
 30
0.0
 40
2.0
 41
0.0
 71
     5
 72
     1
  1
 
  7
CONVERTER_17
 73
     1
 44
1.02040816326531
  0
MTEXT
  5
377
330
B6
100
AcDbEntity
  8
0
 62
     7
100
AcDbMText
 10
269.874522857965
 20
60.04181936348599
 30
0.0
 40
2.0
 41
0.0
 71
     5
 72
     1
  1
 
  7
CONVERTER_11
 73
     1
 44
1.02040816326531
  0
MTEXT
  5
378
330
B6
100
AcDbEntity
  8
0
 62
     7
100
AcDbMText
 10
269.874522857965
 20
55.74183136348601
 30
0.0
 40
2.0
 41
0.0
 71
     5
 72
     1
  1
 
  7
CONVERTER_11
 73
     1
 44
1.02040816326531
  0
MTEXT
  5
379
330
B6
100
AcDbEntity
  8
0
 62
     7
100
AcDbMText
 10
269.874522857965
 20
51.44184336348599
 30
0.0
 40
2.0
 41
0.0
 71
     5
 72
     1
  1
 
  7
CONVERTER_11
 73
     1
 44
1.02040816326531
  0
MTEXT
  5
37A
330
B6
100
AcDbEntity
  8
0
 62
     7
100
AcDbMText
 10
269.874522857965
 20
47.141855363486
 30
0.0
 40
2.0
 41
0.0
 71
     5
 72
     1
  1
 
  7
CONVERTER_11
 73
     1
 44
1.02040816326531
  0
MTEXT
  5
37B
330
B6
100
AcDbEntity
  8
0
 62
     7
100
AcDbMText
 10
269.874522857965
 20
42.84186736348598
 30
0.0
 40
2.0
 41
0.0
 71
     5
 72
     1
  1
 
  7
CONVERTER_11
 73
     1
 44
1.02040816326531
  0
MTEXT
  5
37C
330
B6
100
AcDbEntity
  8
0
 62
     7
100
AcDbMText
 10
269.874522857965
 20
38.541879363486
 30
0.0
 40
2.0
 41
0.0
 71
     5
 72
     1
  1
 
  7
CONVERTER_11
 73
     1
 44
1.02040816326531
  0
MTEXT
  5
37D
330
B6
100
AcDbEntity
  8
0
 62
     7
100
AcDbMText
 10
269.874522857965
 20
34.24189136348599
 30
0.0
 40
2.0
 41
0.0
 71
     5
 72
     1
  1
01
  7
CONVERTER_11
 73
     1
 44
1.02040816326531
  0
MTEXT
  5
37E
330
B6
100
AcDbEntity
  8
0
 62
     4
100
AcDbMText
 10
378.870080274385
 20
50.29189436348599
 30
0.0
 40
5.0
 41
0.0
 71
     5
 72
     1
  1
/
  7
CONVERTER_11
 73
     1
 44
1.02040816326531
  0
MTEXT
  5
37F
330
B6
100
AcDbEntity
  8
0
 62
     7
100
AcDbMText
 10
300.674522857965
 20
30.1523236555391
 30
0.0
 40
1.3
 41
0.0
 71
     8
 72
     1
  1
Mitteilungs-Nr.
  7
CONVERTER_12
 73
     1
 44
0.7202881152461
  0
MTEXT
  5
380
330
B6
100
AcDbEntity
  8
0
 62
     7
100
AcDbMText
 10
300.674522857965
 20
28.3523236555391
 30
0.0
 40
1.3
 41
0.0
 71
     8
 72
     1
  1
Doc. change no.
  7
CONVERTER_12
 73
     1
 44
0.7202881152461
  0
MTEXT
  5
381
330
B6
100
AcDbEntity
  8
0
 62
     7
100
AcDbMText
 10
289.174522857965
 20
30.1523236555391
 30
0.0
 40
1.3
 41
0.0
 71
     8
 72
     1
  1
Name
  7
CONVERTER_12
 73
     1
 44
0.7202881152461
  0
MTEXT
  5
382
330
B6
100
AcDbEntity
  8
0
 62
     7
100
AcDbMText
 10
289.174522857965
 20
28.3523236555391
 30
0.0
 40
1.3
 41
0.0
 71
     8
 72
     1
  1
name
  7
CONVERTER_12
 73
     1
 44
0.7202881152461
  0
MTEXT
  5
383
330
B6
100
AcDbEntity
  8
0
 62
     7
100
AcDbMText
 10
280.174522857965
 20
30.1523236555391
 30
0.0
 40
1.3
 41
0.0
 71
     8
 72
     1
  1
Datum
  7
CONVERTER_12
 73
     1
 44
0.7202881152461
  0
MTEXT
  5
384
330
B6
100
AcDbEntity
  8
0
 62
     7
100
AcDbMText
 10
280.174522857965
 20
28.3523236555391
 30
0.0
 40
1.3
 41
0.0
 71
     8
 72
     1
  1
date
  7
CONVERTER_12
 73
     1
 44
0.7202881152461
  0
MTEXT
  5
385
330
B6
100
AcDbEntity
  8
0
 62
     7
100
AcDbMText
 10
269.874522857965
 20
28.3523236555391
 30
0.0
 40
1.3
 41
0.0
 71
     8
 72
     1
  1
doc.version
  7
CONVERTER_17
 73
     1
 44
0.7202881152461
  0
MTEXT
  5
386
330
B6
100
AcDbEntity
  8
0
 62
     7
100
AcDbMText
 10
269.874522857965
 20
30.1523236555391
 30
0.0
 40
1.3
 41
0.0
 71
     8
 72
     1
  1
Dok.version
  7
CONVERTER_17
 73
     1
 44
0.7202881152461
  0
MTEXT
  5
388
330
B6
100
AcDbEntity
  8
0
 62
     3
100
AcDbMText
 10
350.174522857965
 20
50.48945038000218
 30
0.0
 40
1.8
 41
0.0
 71
     8
 72
     1
  1
Name / name
  7
CONVERTER_18
 73
     1
 44
0.90036014405762
  0
MTEXT
  5
389
330
B6
100
AcDbEntity
  8
0
 62
     3
100
AcDbMText
 10
334.174522857965
 20
50.48945038000218
 30
0.0
 40
1.8
 41
0.0
 71
     8
 72
     1
  1
Datum / date
  7
CONVERTER_18
 73
     1
 44
0.90036014405762
  0
MTEXT
  5
38A
330
B6
100
AcDbEntity
  8
0
 62
     3
100
AcDbMText
 10
358.487861676012
 20
48.94620645437748
 30
0.0
 40
1.8
 41
0.0
 71
     7
 72
     1
  1
Blatt / von\Psheet / of
  7
CONVERTER_12
 73
     1
 44
0.84033613445378
  0
MTEXT
  5
38B
330
B6
100
AcDbEntity
  8
0
 62
     3
100
AcDbMText
 10
308.403703306823
 20
37.54189436348599
 30
0.0
 40
1.8
 41
0.0
 71
     4
 72
     1
  1
Ersatz f\U+00fcr:\Psubst. for:
  7
CONVERTER_12
 73
     1
 44
0.84033613445378
  0
MTEXT
  5
38C
330
B6
100
AcDbEntity
  8
0
 62
     3
100
AcDbMText
 10
308.403703306823
 20
31.04189436348599
 30
0.0
 40
1.8
 41
0.0
 71
     4
 72
     1
  1
Ersetzt durch:\Psubst. with:
  7
CONVERTER_12
 73
     1
 44
0.84033613445378
  0
TEXT
  5
38D
330
B6
100
AcDbEntity
  8
0
 62
     3
100
AcDbText
 10
349.4744798579651
 20
68.391900363486
 30
0.0
 40
1.8
  1
Benennung / designation
 41
0.72
  7
CONVERTER_12
100
AcDbText
  0
MTEXT
  5
38E
330
B6
100
AcDbEntity
  8
0
 62
     3
100
AcDbMText
 10
358.3894232771841
 20
43.15368261241969
 30
0.0
 40
1.8
 41
0.0
 71
     7
 72
     1
  1
Ma\U+00dfstab\Pscale
  7
CONVERTER_12
 73
     1
 44
0.84033613445378
  0
TEXT
  5
38F
330
B6
100
AcDbEntity
  8
0
 62
     3
100
AcDbText
 10
358.8745228579649
 20
38.52522761298599
 30
0.0
 40
1.8
  1
Sprache / language
 41
0.72
  7
CONVERTER_12
100
AcDbText
  0
TEXT
  5
390
330
B6
100
AcDbEntity
  8
0
 62
     3
100
AcDbText
 10
385.674522857965
 20
38.191894363486
 30
0.0
 40
1.8
  1
Zeichnungs-Nr. / document-no.
 41
0.72
  7
CONVERTER_12
100
AcDbText
  0
MTEXT
  5
391
330
B6
100
AcDbEntity
  8
0
 62
     3
100
AcDbMText
 10
385.674522857965
 20
48.69189436348601
 30
0.0
 40
1.8
 41
0.0
 71
     7
 72
     1
  1
Material-Nr.\PID-no.
  7
CONVERTER_12
 73
     1
 44
0.84033613445378
  0
MTEXT
  5
392
330
B6
100
AcDbEntity
  8
0
 62
     3
100
AcDbMText
 10
329.2341366851661
 20
59.50876760746618
 30
0.0
 40
1.8
 41
0.0
 71
     7
 72
     1
  1
P.O. Box 13 63\P71226 Leonberg\PGermany
  7
CONVERTER_12
 73
     1
 44
0.78031212484994
  0
TEXT
  5
393
330
B6
100
AcDbEntity
  8
0
 62
     4
100
AcDbText
 10
329.2341366851661
 20
67.24024483624049
 30
0.0
 40
2.2
  1
GEZE GmbH
 41
0.9
  7
CONVERTER_11
100
AcDbText
  0
MTEXT
  5
394
330
B6
100
AcDbEntity
  8
0
 62
     3
100
AcDbMText
 10
308.403703306823
 20
47.24189436348598
 30
0.0
 40
1.8
 41
0.0
 71
     4
 72
     1
  1
erstellt / drawn
  7
CONVERTER_12
 73
     1
 44
0.90036014405762
  0
MTEXT
  5
395
330
B6
100
AcDbEntity
  8
0
 62
     3
100
AcDbMText
 10
308.403703306823
 20
42.94189436348601
 30
0.0
 40
1.8
 41
0.0
 71
     4
 72
     1
  1
gepr. / checked
  7
CONVERTER_12
 73
     1
 44
0.90036014405762
  0
MTEXT
  5
396
330
B6
100
AcDbEntity
  8
0
 62
     3
100
AcDbMText
 10
401.6745228579651
 20
89.6157676172732
 30
0.0
 40
1.8
 41
0.0
 71
     7
 72
     1
  1
Ma\U+00dfe ohne Toleranzangabe nach
  7
CONVERTER_12
 73
     1
 44
0.78031212484994
  0
MTEXT
  5
397
330
B6
100
AcDbEntity
  8
0
 62
     3
100
AcDbMText
 10
312.974479857965
 20
87.09190336348598
 30
0.0
 40
1.8
 41
0.0
 71
     7
 72
     1
  1
Oberfl\U+00e4chenbehandlung\Porder of surface treatment
  7
CONVERTER_12
 73
     1
 44
0.78031212484994
  0
MTEXT
  5
398
330
B6
100
AcDbEntity
  8
0
 62
     3
100
AcDbMText
 10
356.974479857965
 20
87.09190336348598
 30
0.0
 40
1.8
 41
0.0
 71
     7
 72
     1
  1
W\U+00e4rmebehandlung\Porder of heat treatment
  7
CONVERTER_12
 73
     1
 44
0.78031212484994
  0
MTEXT
  5
399
330
B6
100
AcDbEntity
  8
0
 62
     3
100
AcDbMText
 10
401.590281242045
 20
83.86407949330038
 30
0.0
 40
1.8
 41
0.0
 71
     7
 72
     1
  1
Dimensions without individual\Ptolerance indication acc.
  7
CONVERTER_12
 73
     1
 44
0.78031212484994
  0
TEXT
  5
39A
330
B6
100
AcDbEntity
  8
0
 62
     3
100
AcDbText
 10
401.649759075769
 20
80.40131098043
 30
0.0
 40
1.8
  1
DIN ISO 2768-1-m
 41
0.72
  7
CONVERTER_12
100
AcDbText
  0
TEXT
  5
39B
330
B6
100
AcDbEntity
  8
0
 62
     3
100
AcDbText
 10
401.649759075769
 20
77.40131098043
 30
0.0
 40
1.8
  1
DIN EN 12020-2
 41
0.72
  7
CONVERTER_12
100
AcDbText
  0
TEXT
  5
39C
330
B6
100
AcDbEntity
  8
0
 62
     3
100
AcDbText
 10
401.649759075769
 20
74.40131098043
 30
0.0
 40
1.8
  1
... DIN 16901
 41
0.72
  7
CONVERTER_12
100
AcDbText
  0
MTEXT
  5
39D
330
B6
100
AcDbEntity
  8
0
 62
     3
100
AcDbMText
 10
261.974479857965
 20
87.09190336348598
 30
0.0
 40
1.8
 41
0.0
 71
     7
 72
     1
  1
Werkstoff / material\PRohteil / original part
  7
CONVERTER_12
 73
     1
 44
0.78031212484994
  0
MTEXT
  5
39E
330
B6
100
AcDbEntity
  8
0
 62
     4
100
AcDbMText
 10
371.2972382716441
 20
35.99189436348601
 30
0.0
 40
3.5
 41
0.0
 71
     5
 72
     1
  1
D
  7
CONVERTER_11
 73
     1
 44
1.02040816326531
  0
ENDBLK
  5
B8
330
B6
100
AcDbEntity
  8
0
100
AcDbBlockEnd
  0
BLOCK
  5
BB
330
B9
100
AcDbEntity
  8
0
100
AcDbBlockBegin
  2
rahmen
 70
     0
 10
38.34904571593003
 20
34.58378872697199
 30
0.0
  3
rahmen
  1

  0
INSERT
  5
BA
330
B9
100
AcDbEntity
  8
1
100
AcDbBlockReference
  2
a3gr
 10
38.34904571593003
 20
34.58378872697199
 30
0.0
  0
ENDBLK
  5
BC
330
B9
100
AcDbEntity
  8
0
100
AcDbBlockEnd
  0
ENDSEC
  0
SECTION
  2
ENTITIES
  0
INSERT
  5
BD
330
1F
100
AcDbEntity
  8
0
100
AcDbBlockReference
  2
X__6
 10
156.9080006327966
 20
109.1739994537531
 30
0.0
 41
2.0
 42
2.0
 43
2.0
  0
INSERT
  5
BE
330
1F
100
AcDbEntity
  8
0
100
AcDbBlockReference
  2
A-A__13
 10
357.0
 20
211.0
 30
0.0
  0
INSERT
  5
BF
330
1F
100
AcDbEntity
  8
0
100
AcDbBlockReference
  2
Vordans1
 10
213.8999992712793
 20
211.0
 30
0.0
  0
INSERT
  5
C0
330
1F
100
AcDbEntity
  8
0
100
AcDbBlockReference
  2
rahmen
 10
38.34904571593003
 20
34.58378872697199
 30
0.0
  0
MTEXT
  5
39F
330
1F
100
AcDbEntity
  8
1
 62
     4
100
AcDbMText
 10
259.797720893546
 20
98.43410068989101
 30
0.0
 40
3.5
 41
0.0
 71
     7
 72
     1
  1
Technische Daten Klebeband:\PINFO im SAP, Material 014835
  7
CONVERTER_12
 73
     1
 44
1.02040816326531
  0
LWPOLYLINE
  5
3A0
330
1F
100
AcDbEntity
  8
1
 62
     3
100
AcDbPolyline
 90
        8
 70
     1
 43
0.0
 10
287.376236062323
 20
109.952009465618
 10
287.776236062323
 20
109.952009465618
 42
0.4142135623731
 10
289.776236062323
 20
111.952009465618
 10
289.776236062323
 20
111.952009465618
 42
0.4142135623731
 10
287.776236062323
 20
113.952009465618
 10
287.376236062323
 20
113.952009465618
 42
0.4142135623731
 10
285.376236062323
 20
111.952009465618
 10
285.376236062323
 20
111.952009465618
 42
0.4142135623731
  0
TEXT
  5
3A1
330
1F
100
AcDbEntity
  8
1
 62
     3
100
AcDbText
 10
286.376236062323
 20
110.952009465618
 30
0.0
 40
2.0
  1
01
 41
0.9
  7
CONVERTER_11
100
AcDbText
  0
ENDSEC
  0
SECTION
  2
OBJECTS
  0
DICTIONARY
  5
C
330
0
100
AcDbDictionary
281
     1
  3
ACAD_GROUP
350
D
  3
ACAD_LAYOUT
350
1A
  3
ACAD_MATERIAL
350
3B
  3
ACAD_MLEADERSTYLE
350
3A4
  3
ACAD_MLINESTYLE
350
17
  3
ACAD_PLOTSETTINGS
350
19
  3
ACAD_PLOTSTYLENAME
350
E
  3
ACAD_SCALELIST
350
54
  3
ACAD_VISUALSTYLE
350
2A
  3
AcDbVariableDictionary
350
3A2
  0
DICTIONARY
  5
D
102
{ACAD_REACTORS
330
C
102
}
330
C
100
AcDbDictionary
281
     1
  0
DICTIONARY
  5
1A
102
{ACAD_REACTORS
330
C
102
}
330
C
100
AcDbDictionary
281
     1
  3
Layout1
350
1E
  3
Layout2
350
26
  3
Model
350
22
  0
DICTIONARY
  5
3B
102
{ACAD_REACTORS
330
C
102
}
330
C
100
AcDbDictionary
281
     1
  3
ByBlock
350
3D
  3
ByLayer
350
3C
  3
Global
350
3E
  0
DICTIONARY
  5
3A4
102
{ACAD_REACTORS
330
C
102
}
330
C
100
AcDbDictionary
281
     1
  0
DICTIONARY
  5
17
102
{ACAD_REACTORS
330
C
102
}
330
C
100
AcDbDictionary
281
     1
  3
Standard
350
18
  0
DICTIONARY
  5
19
102
{ACAD_REACTORS
330
C
102
}
330
C
100
AcDbDictionary
281
     1
  0
ACDBDICTIONARYWDFLT
  5
E
102
{ACAD_REACTORS
330
C
102
}
330
C
100
AcDbDictionary
281
     1
  3
Normal
350
F
100
AcDbDictionaryWithDefault
340
F
  0
DICTIONARY
  5
54
102
{ACAD_REACTORS
330
C
102
}
330
C
100
AcDbDictionary
281
     1
  3
A0
350
55
  3
A1
350
56
  3
A2
350
57
  3
A3
350
58
  3
A4
350
59
  3
A5
350
5A
  3
A6
350
5B
  3
A7
350
5C
  3
A8
350
5D
  3
A9
350
5E
  3
B0
350
5F
  3
B1
350
60
  3
B2
350
61
  3
B3
350
62
  3
B4
350
63
  3
B5
350
64
  3
B6
350
65
  3
B7
350
66
  3
B8
350
67
  3
B9
350
68
  3
C0
350
69
  3
C1
350
6A
  3
C2
350
6B
  3
C3
350
6C
  3
C4
350
6D
  3
C5
350
6E
  3
C6
350
6F
  3
C7
350
70
  3
C8
350
71
  3
C9
350
72
  3
D0
350
73
  3
D1
350
74
  3
D2
350
75
  0
DICTIONARY
  5
2A
102
{ACAD_REACTORS
330
C
102
}
330
C
100
AcDbDictionary
281
     1
  3
2dWireframe
350
2F
  3
3D Hidden
350
31
  3
3dWireframe
350
30
  3
Basic
350
32
  3
Brighten
350
36
  3
ColorChange
350
3A
  3
Conceptual
350
34
  3
Dim
350
35
  3
Facepattern
350
39
  3
Flat
350
2B
  3
FlatWithEdges
350
2C
  3
Gouraud
350
2D
  3
GouraudWithEdges
350
2E
  3
Linepattern
350
38
  3
Realistic
350
33
  3
Thicken
350
37
  0
DICTIONARY
  5
3A2
102
{ACAD_REACTORS
330
C
102
}
330
C
100
AcDbDictionary
281
     1
  3
CANNOSCALE
350
3A5
  3
DIMASSOC
350
3A6
  3
HIDETEXT
350
3A7
  0
LAYOUT
  5
1E
102
{ACAD_REACTORS
330
1A
102
}
330
1A
100
AcDbPlotSettings
  1

  2
none_device
  4

  6

 40
0.0
 41
0.0
 42
0.0
 43
0.0
 44
0.0
 45
0.0
 46
0.0
 47
0.0
 48
0.0
 49
0.0
140
0.0
141
0.0
142
1.0
143
1.0
 70
   688
 72
     0
 73
     0
 74
     5
  7

 75
    16
147
1.0
148
0.0
149
0.0
100
AcDbLayout
  1
Layout1
 70
     1
 71
     1
 10
0.0
 20
0.0
 11
12.0
 21
9.0
 12
0.0
 22
0.0
 32
0.0
 14
1.00000000000000E+20
 24
1.00000000000000E+20
 34
1.00000000000000E+20
 15
-1.00000000000000E+20
 25
-1.00000000000000E+20
 35
-1.00000000000000E+20
146
0.0
 13
0.0
 23
0.0
 33
0.0
 16
1.0
 26
0.0
 36
0.0
 17
0.0
 27
1.0
 37
0.0
 76
     0
330
1B
  0
LAYOUT
  5
26
102
{ACAD_REACTORS
330
1A
102
}
330
1A
100
AcDbPlotSettings
  1

  2
none_device
  4

  6

 40
0.0
 41
0.0
 42
0.0
 43
0.0
 44
0.0
 45
0.0
 46
0.0
 47
0.0
 48
0.0
 49
0.0
140
0.0
141
0.0
142
1.0
143
1.0
 70
   688
 72
     0
 73
     0
 74
     5
  7

 75
    16
147
1.0
148
0.0
149
0.0
100
AcDbLayout
  1
Layout2
 70
     1
 71
     2
 10
0.0
 20
0.0
 11
0.0
 21
0.0
 12
0.0
 22
0.0
 32
0.0
 14
0.0
 24
0.0
 34
0.0
 15
0.0
 25
0.0
 35
0.0
146
0.0
 13
0.0
 23
0.0
 33
0.0
 16
1.0
 26
0.0
 36
0.0
 17
0.0
 27
1.0
 37
0.0
 76
     0
330
23
  0
LAYOUT
  5
22
102
{ACAD_REACTORS
330
1A
102
}
330
1A
100
AcDbPlotSettings
  1

  2
none_device
  4

  6

 40
0.0
 41
0.0
 42
0.0
 43
0.0
 44
0.0
 45
0.0
 46
0.0
 47
0.0
 48
0.0
 49
0.0
140
0.0
141
0.0
142
1.0
143
1.0
 70
  1712
 72
     0
 73
     0
 74
     0
  7

 75
     0
147
1.0
148
0.0
149
0.0
100
AcDbLayout
  1
Model
 70
     1
 71
     0
 10
0.0
 20
0.0
 11
12.0
 21
9.0
 12
0.0
 22
0.0
 32
0.0
 14
29.674522857965
 24
27.79189436348598
 34
0.0
 15
439.674522857965
 25
313.791894363486
 35
0.0
146
0.0
 13
0.0
 23
0.0
 33
0.0
 16
1.0
 26
0.0
 36
0.0
 17
0.0
 27
1.0
 37
0.0
 76
     0
330
1F
331
29
  0
MATERIAL
  5
3D
102
{ACAD_REACTORS
330
3B
102
}
102
{ACAD_XDICTIONARY
360
3CA
102
}
330
3B
100
AcDbMaterial
  1
ByBlock
  0
MATERIAL
  5
3C
102
{ACAD_REACTORS
330
3B
102
}
102
{ACAD_XDICTIONARY
360
3C8
102
}
330
3B
100
AcDbMaterial
  1
ByLayer
  0
MATERIAL
  5
3E
102
{ACAD_REACTORS
330
3B
102
}
102
{ACAD_XDICTIONARY
360
3CC
102
}
330
3B
100
AcDbMaterial
  1
Global
  0
MLINESTYLE
  5
18
102
{ACAD_REACTORS
330
17
102
}
330
17
100
AcDbMlineStyle
  2
Standard
 70
     0
  3

 62
   256
 51
90.0
 52
90.0
 71
     2
 49
0.5
 62
   256
  6
BYLAYER
 49
-0.5
 62
   256
  6
BYLAYER
  0
ACDBPLACEHOLDER
  5
F
102
{ACAD_REACTORS
330
E
102
}
330
E
  0
SCALE
  5
55
102
{ACAD_REACTORS
330
54
102
}
330
54
100
AcDbScale
 70
     0
300
1:1
140
1.0
141
1.0
290
     1
  0
SCALE
  5
56
102
{ACAD_REACTORS
330
54
102
}
330
54
100
AcDbScale
 70
     0
300
1:2
140
1.0
141
2.0
290
     0
  0
SCALE
  5
57
102
{ACAD_REACTORS
330
54
102
}
330
54
100
AcDbScale
 70
     0
300
1:4
140
1.0
141
4.0
290
     0
  0
SCALE
  5
58
102
{ACAD_REACTORS
330
54
102
}
330
54
100
AcDbScale
 70
     0
300
1:5
140
1.0
141
5.0
290
     0
  0
SCALE
  5
59
102
{ACAD_REACTORS
330
54
102
}
330
54
100
AcDbScale
 70
     0
300
1:8
140
1.0
141
8.0
290
     0
  0
SCALE
  5
5A
102
{ACAD_REACTORS
330
54
102
}
330
54
100
AcDbScale
 70
     0
300
1:10
140
1.0
141
10.0
290
     0
  0
SCALE
  5
5B
102
{ACAD_REACTORS
330
54
102
}
330
54
100
AcDbScale
 70
     0
300
1:16
140
1.0
141
16.0
290
     0
  0
SCALE
  5
5C
102
{ACAD_REACTORS
330
54
102
}
330
54
100
AcDbScale
 70
     0
300
1:20
140
1.0
141
20.0
290
     0
  0
SCALE
  5
5D
102
{ACAD_REACTORS
330
54
102
}
330
54
100
AcDbScale
 70
     0
300
1:30
140
1.0
141
30.0
290
     0
  0
SCALE
  5
5E
102
{ACAD_REACTORS
330
54
102
}
330
54
100
AcDbScale
 70
     0
300
1:40
140
1.0
141
40.0
290
     0
  0
SCALE
  5
5F
102
{ACAD_REACTORS
330
54
102
}
330
54
100
AcDbScale
 70
     0
300
1:50
140
1.0
141
50.0
290
     0
  0
SCALE
  5
60
102
{ACAD_REACTORS
330
54
102
}
330
54
100
AcDbScale
 70
     0
300
1:100
140
1.0
141
100.0
290
     0
  0
SCALE
  5
61
102
{ACAD_REACTORS
330
54
102
}
330
54
100
AcDbScale
 70
     0
300
2:1
140
2.0
141
1.0
290
     0
  0
SCALE
  5
62
102
{ACAD_REACTORS
330
54
102
}
330
54
100
AcDbScale
 70
     0
300
4:1
140
4.0
141
1.0
290
     0
  0
SCALE
  5
63
102
{ACAD_REACTORS
330
54
102
}
330
54
100
AcDbScale
 70
     0
300
8:1
140
8.0
141
1.0
290
     0
  0
SCALE
  5
64
102
{ACAD_REACTORS
330
54
102
}
330
54
100
AcDbScale
 70
     0
300
10:1
140
10.0
141
1.0
290
     0
  0
SCALE
  5
65
102
{ACAD_REACTORS
330
54
102
}
330
54
100
AcDbScale
 70
     0
300
100:1
140
100.0
141
1.0
290
     0
  0
SCALE
  5
66
102
{ACAD_REACTORS
330
54
102
}
330
54
100
AcDbScale
 70
     0
300
1/128" = 1'-0"
140
0.0078125
141
12.0
290
     0
  0
SCALE
  5
67
102
{ACAD_REACTORS
330
54
102
}
330
54
100
AcDbScale
 70
     0
300
1/64" = 1'-0"
140
0.015625
141
12.0
290
     0
  0
SCALE
  5
68
102
{ACAD_REACTORS
330
54
102
}
330
54
100
AcDbScale
 70
     0
300
1/32" = 1'-0"
140
0.03125
141
12.0
290
     0
  0
SCALE
  5
69
102
{ACAD_REACTORS
330
54
102
}
330
54
100
AcDbScale
 70
     0
300
1/16" = 1'-0"
140
0.0625
141
12.0
290
     0
  0
SCALE
  5
6A
102
{ACAD_REACTORS
330
54
102
}
330
54
100
AcDbScale
 70
     0
300
3/32" = 1'-0"
140
0.09375
141
12.0
290
     0
  0
SCALE
  5
6B
102
{ACAD_REACTORS
330
54
102
}
330
54
100
AcDbScale
 70
     0
300
1/8" = 1'-0"
140
0.125
141
12.0
290
     0
  0
SCALE
  5
6C
102
{ACAD_REACTORS
330
54
102
}
330
54
100
AcDbScale
 70
     0
300
3/16" = 1'-0"
140
0.1875
141
12.0
290
     0
  0
SCALE
  5
6D
102
{ACAD_REACTORS
330
54
102
}
330
54
100
AcDbScale
 70
     0
300
1/4" = 1'-0"
140
0.25
141
12.0
290
     0
  0
SCALE
  5
6E
102
{ACAD_REACTORS
330
54
102
}
330
54
100
AcDbScale
 70
     0
300
3/8" = 1'-0"
140
0.375
141
12.0
290
     0
  0
SCALE
  5
6F
102
{ACAD_REACTORS
330
54
102
}
330
54
100
AcDbScale
 70
     0
300
1/2" = 1'-0"
140
0.5
141
12.0
290
     0
  0
SCALE
  5
70
102
{ACAD_REACTORS
330
54
102
}
330
54
100
AcDbScale
 70
     0
300
3/4" = 1'-0"
140
0.75
141
12.0
290
     0
  0
SCALE
  5
71
102
{ACAD_REACTORS
330
54
102
}
330
54
100
AcDbScale
 70
     0
300
1" = 1'-0"
140
1.0
141
12.0
290
     0
  0
SCALE
  5
72
102
{ACAD_REACTORS
330
54
102
}
330
54
100
AcDbScale
 70
     0
300
1-1/2" = 1'-0"
140
1.5
141
12.0
290
     0
  0
SCALE
  5
73
102
{ACAD_REACTORS
330
54
102
}
330
54
100
AcDbScale
 70
     0
300
3" = 1'-0"
140
3.0
141
12.0
290
     0
  0
SCALE
  5
74
102
{ACAD_REACTORS
330
54
102
}
330
54
100
AcDbScale
 70
     0
300
6" = 1'-0"
140
6.0
141
12.0
290
     0
  0
SCALE
  5
75
102
{ACAD_REACTORS
330
54
102
}
330
54
100
AcDbScale
 70
     0
300
1'-0" = 1'-0"
140
12.0
141
12.0
290
     0
  0
VISUALSTYLE
  5
2F
102
{ACAD_REACTORS
330
2A
102
}
102
{ACAD_XDICTIONARY
360
3B0
102
}
330
2A
100
AcDbVisualStyle
  2
2dWireframe
 70
     4
 71
     0
 72
     2
 73
     0
 90
        0
 40
-0.6
 41
-30.0
 62
     5
 63
     7
 74
     1
 91
        4
 64
     7
 65
   257
 75
     1
175
     1
 42
1.0
 92
        0
 66
   257
 43
1.0
 76
     1
 77
     6
 78
     2
 67
     7
 79
     5
170
     0
171
     0
290
     0
174
     0
 93
        1
 44
0.0
173
     0
291
     0
 45
0.0
1001
ACAD
1000
AcDbSavedByObjectVersion
1070
     0
  0
VISUALSTYLE
  5
31
102
{ACAD_REACTORS
330
2A
102
}
102
{ACAD_XDICTIONARY
360
3B4
102
}
330
2A
100
AcDbVisualStyle
  2
3D Hidden
 70
     6
 71
     1
 72
     2
 73
     2
 90
        0
 40
-0.6
 41
-30.0
 62
     5
 63
     7
 74
     2
 91
        2
 64
     7
 65
   257
 75
     2
175
     1
 42
40.0
 92
        0
 66
   257
 43
1.0
 76
     1
 77
     6
 78
     2
 67
     7
 79
     3
170
     0
171
     0
290
     0
174
     0
 93
        1
 44
0.0
173
     0
291
     0
 45
0.0
1001
ACAD
1000
AcDbSavedByObjectVersion
1070
     0
  0
VISUALSTYLE
  5
30
102
{ACAD_REACTORS
330
2A
102
}
102
{ACAD_XDICTIONARY
360
3B2
102
}
330
2A
100
AcDbVisualStyle
  2
3dWireframe
 70
     5
 71
     0
 72
     2
 73
     0
 90
        0
 40
-0.6
 41
-30.0
 62
     5
 63
     7
 74
     1
 91
        4
 64
     7
 65
   257
 75
     1
175
     1
 42
1.0
 92
        0
 66
   257
 43
1.0
 76
     1
 77
     6
 78
     2
 67
     7
 79
     5
170
     0
171
     0
290
     0
174
     0
 93
        1
 44
0.0
173
     0
291
     0
 45
0.0
1001
ACAD
1000
AcDbSavedByObjectVersion
1070
     0
  0
VISUALSTYLE
  5
32
102
{ACAD_REACTORS
330
2A
102
}
102
{ACAD_XDICTIONARY
360
3B6
102
}
330
2A
100
AcDbVisualStyle
  2
Basic
 70
     7
 71
     1
 72
     0
 73
     1
 90
        0
 40
-0.6
 41
-30.0
 62
     5
 63
     7
 74
     0
 91
        4
 64
     7
 65
   257
 75
     1
175
     1
 42
1.0
 92
        8
 66
     7
 43
1.0
 76
     1
 77
     6
 78
     2
 67
     7
 79
     5
170
     0
171
     0
290
     0
174
     0
 93
        1
 44
0.0
173
     0
291
     1
 45
0.0
1001
ACAD
1000
AcDbSavedByObjectVersion
1070
     0
  0
VISUALSTYLE
  5
36
102
{ACAD_REACTORS
330
2A
102
}
102
{ACAD_XDICTIONARY
360
3BE
102
}
330
2A
100
AcDbVisualStyle
  2
Brighten
 70
    12
 71
     2
 72
     2
 73
     0
 90
        0
 40
-0.6
 41
-30.0
 62
     5
 63
     7
 74
     1
 91
        4
 64
     7
 65
   257
 75
     1
175
     1
 42
1.0
 92
        8
 66
     7
 43
1.0
 76
     1
 77
     6
 78
     2
 67
     7
 79
     5
170
     0
171
     0
290
     0
174
     0
 93
        1
 44
50.0
173
     0
291
     1
 45
0.0
1001
ACAD
1000
AcDbSavedByObjectVersion
1070
     0
  0
VISUALSTYLE
  5
3A
102
{ACAD_REACTORS
330
2A
102
}
102
{ACAD_XDICTIONARY
360
3C6
102
}
330
2A
100
AcDbVisualStyle
  2
ColorChange
 70
    16
 71
     2
 72
     2
 73
     3
 90
        0
 40
-0.6
 41
-30.0
 62
     5
 63
     8
 74
     1
 91
        4
 64
     7
 65
   257
 75
     1
175
     1
 42
1.0
 92
        8
 66
     8
 43
1.0
 76
     1
 77
     6
 78
     2
 67
     7
 79
     5
170
     0
171
     0
290
     0
174
     0
 93
        1
 44
0.0
173
     0
291
     1
 45
0.0
1001
ACAD
1000
AcDbSavedByObjectVersion
1070
     0
  0
VISUALSTYLE
  5
34
102
{ACAD_REACTORS
330
2A
102
}
102
{ACAD_XDICTIONARY
360
3BA
102
}
330
2A
100
AcDbVisualStyle
  2
Conceptual
 70
     9
 71
     3
 72
     2
 73
     0
 90
        0
 40
-0.6
 41
-30.0
 62
     5
 63
     7
 74
     2
 91
        2
 64
     7
 65
   257
 75
     1
175
     1
 42
40.0
 92
        8
 66
     7
 43
1.0
 76
     1
 77
     6
 78
     2
 67
     7
 79
     3
170
     0
171
     0
290
     0
174
     0
 93
        1
 44
0.0
173
     0
291
     0
 45
0.0
1001
ACAD
1000
AcDbSavedByObjectVersion
1070
     0
  0
VISUALSTYLE
  5
35
102
{ACAD_REACTORS
330
2A
102
}
102
{ACAD_XDICTIONARY
360
3BC
102
}
330
2A
100
AcDbVisualStyle
  2
Dim
 70
    11
 71
     2
 72
     2
 73
     0
 90
        0
 40
-0.6
 41
-30.0
 62
     5
 63
     7
 74
     1
 91
        4
 64
     7
 65
   257
 75
     1
175
     1
 42
1.0
 92
        8
 66
     7
 43
1.0
 76
     1
 77
     6
 78
     2
 67
     7
 79
     5
170
     0
171
     0
290
     0
174
     0
 93
        1
 44
-50.0
173
     0
291
     1
 45
0.0
1001
ACAD
1000
AcDbSavedByObjectVersion
1070
     0
  0
VISUALSTYLE
  5
39
102
{ACAD_REACTORS
330
2A
102
}
102
{ACAD_XDICTIONARY
360
3C4
102
}
330
2A
100
AcDbVisualStyle
  2
Facepattern
 70
    15
 71
     2
 72
     2
 73
     0
 90
        0
 40
-0.6
 41
-30.0
 62
     5
 63
     7
 74
     1
 91
        4
 64
     7
 65
   257
 75
     1
175
     1
 42
1.0
 92
        8
 66
     7
 43
1.0
 76
     1
 77
     6
 78
     2
 67
     7
 79
     5
170
     0
171
     0
290
     0
174
     0
 93
        1
 44
0.0
173
     0
291
     1
 45
0.0
1001
ACAD
1000
AcDbSavedByObjectVersion
1070
     0
  0
VISUALSTYLE
  5
2B
102
{ACAD_REACTORS
330
2A
102
}
102
{ACAD_XDICTIONARY
360
3A8
102
}
330
2A
100
AcDbVisualStyle
  2
Flat
 70
     0
 71
     2
 72
     1
 73
     1
 90
        2
 40
-0.6
 41
30.0
 62
     5
 63
     7
 74
     0
 91
        4
 64
     7
 65
   257
 75
     1
175
     1
 42
1.0
 92
        8
 66
     7
 43
1.0
 76
     1
 77
     6
 78
     2
 67
     7
 79
     5
170
     0
171
     0
290
     0
174
     0
 93
       13
 44
0.0
173
     0
291
     1
 45
0.0
1001
ACAD
1000
AcDbSavedByObjectVersion
1070
     0
  0
VISUALSTYLE
  5
2C
102
{ACAD_REACTORS
330
2A
102
}
102
{ACAD_XDICTIONARY
360
3AA
102
}
330
2A
100
AcDbVisualStyle
  2
FlatWithEdges
 70
     1
 71
     2
 72
     1
 73
     1
 90
        2
 40
-0.6
 41
30.0
 62
     5
 63
     7
 74
     1
 91
        4
 64
     7
 65
   257
 75
     1
175
     1
 42
1.0
 92
        0
 66
   257
 43
1.0
 76
     1
 77
     6
 78
     2
 67
     7
 79
     5
170
     0
171
     0
290
     0
174
     0
 93
       13
 44
0.0
173
     0
291
     1
 45
0.0
1001
ACAD
1000
AcDbSavedByObjectVersion
1070
     0
  0
VISUALSTYLE
  5
2D
102
{ACAD_REACTORS
330
2A
102
}
102
{ACAD_XDICTIONARY
360
3AC
102
}
330
2A
100
AcDbVisualStyle
  2
Gouraud
 70
     2
 71
     2
 72
     2
 73
     1
 90
        2
 40
-0.6
 41
30.0
 62
     5
 63
     7
 74
     0
 91
        4
 64
     7
 65
   257
 75
     1
175
     1
 42
1.0
 92
        0
 66
     7
 43
1.0
 76
     1
 77
     6
 78
     2
 67
     7
 79
     5
170
     0
171
     0
290
     0
174
     0
 93
       13
 44
0.0
173
     0
291
     1
 45
0.0
1001
ACAD
1000
AcDbSavedByObjectVersion
1070
     0
  0
VISUALSTYLE
  5
2E
102
{ACAD_REACTORS
330
2A
102
}
102
{ACAD_XDICTIONARY
360
3AE
102
}
330
2A
100
AcDbVisualStyle
  2
GouraudWithEdges
 70
     3
 71
     2
 72
     2
 73
     1
 90
        2
 40
-0.6
 41
30.0
 62
     5
 63
     7
 74
     1
 91
        4
 64
     7
 65
   257
 75
     1
175
     1
 42
1.0
 92
        0
 66
   257
 43
1.0
 76
     1
 77
     6
 78
     2
 67
     7
 79
     5
170
     0
171
     0
290
     0
174
     0
 93
       13
 44
0.0
173
     0
291
     1
 45
0.0
1001
ACAD
1000
AcDbSavedByObjectVersion
1070
     0
  0
VISUALSTYLE
  5
38
102
{ACAD_REACTORS
330
2A
102
}
102
{ACAD_XDICTIONARY
360
3C2
102
}
330
2A
100
AcDbVisualStyle
  2
Linepattern
 70
    14
 71
     2
 72
     2
 73
     0
 90
        0
 40
-0.6
 41
-30.0
 62
     5
 63
     7
 74
     1
 91
        4
 64
     7
 65
   257
 75
     7
175
     7
 42
1.0
 92
        8
 66
     7
 43
1.0
 76
     1
 77
     6
 78
     2
 67
     7
 79
     5
170
     0
171
     0
290
     0
174
     0
 93
        1
 44
0.0
173
     0
291
     1
 45
0.0
1001
ACAD
1000
AcDbSavedByObjectVersion
1070
     0
  0
VISUALSTYLE
  5
33
102
{ACAD_REACTORS
330
2A
102
}
102
{ACAD_XDICTIONARY
360
3B8
102
}
330
2A
100
AcDbVisualStyle
  2
Realistic
 70
     8
 71
     2
 72
     2
 73
     0
 90
        0
 40
-0.6
 41
-30.0
 62
     5
 63
     7
 74
     1
 91
        0
 64
     7
 65
   257
 75
     1
175
     1
 42
1.0
 92
        8
 66
     8
 43
1.0
 76
     1
 77
     6
 78
     2
 67
     7
 79
     5
170
     0
171
     0
290
     0
174
     0
 93
       13
 44
0.0
173
     0
291
     0
 45
0.0
1001
ACAD
1000
AcDbSavedByObjectVersion
1070
     0
  0
VISUALSTYLE
  5
37
102
{ACAD_REACTORS
330
2A
102
}
102
{ACAD_XDICTIONARY
360
3C0
102
}
330
2A
100
AcDbVisualStyle
  2
Thicken
 70
    13
 71
     2
 72
     2
 73
     0
 90
        0
 40
-0.6
 41
-30.0
 62
     5
 63
     7
 74
     1
 91
        4
 64
     7
 65
   257
 75
     1
175
     1
 42
1.0
 92
       12
 66
     7
 43
1.0
 76
     1
 77
     6
 78
     2
 67
     7
 79
     5
170
     0
171
     0
290
     0
174
     0
 93
        1
 44
0.0
173
     0
291
     1
 45
0.0
1001
ACAD
1000
AcDbSavedByObjectVersion
1070
     0
  0
DICTIONARYVAR
  5
3A5
102
{ACAD_REACTORS
330
3A2
102
}
330
3A2
100
DictionaryVariables
280
     0
  1
1:1
  0
DICTIONARYVAR
  5
3A6
102
{ACAD_REACTORS
330
3A2
102
}
330
3A2
100
DictionaryVariables
280
     0
  1
2
  0
DICTIONARYVAR
  5
3A7
102
{ACAD_REACTORS
330
3A2
102
}
330
3A2
100
DictionaryVariables
280
     0
  1
1
  0
DICTIONARY
  5
3CA
330
3D
100
AcDbDictionary
280
     1
281
     1
  3
ACAD_XREC_ROUNDTRIP
360
3CB
  0
DICTIONARY
  5
3C8
330
3C
100
AcDbDictionary
280
     1
281
     1
  3
ACAD_XREC_ROUNDTRIP
360
3C9
  0
DICTIONARY
  5
3CC
330
3E
100
AcDbDictionary
280
     1
281
     1
  3
ACAD_XREC_ROUNDTRIP
360
3CD
  0
DICTIONARY
  5
3B0
330
2F
100
AcDbDictionary
280
     1
281
     1
  3
ACAD_XREC_ROUNDTRIP
360
3B1
  0
DICTIONARY
  5
3B4
330
31
100
AcDbDictionary
280
     1
281
     1
  3
ACAD_XREC_ROUNDTRIP
360
3B5
  0
DICTIONARY
  5
3B2
330
30
100
AcDbDictionary
280
     1
281
     1
  3
ACAD_XREC_ROUNDTRIP
360
3B3
  0
DICTIONARY
  5
3B6
330
32
100
AcDbDictionary
280
     1
281
     1
  3
ACAD_XREC_ROUNDTRIP
360
3B7
  0
DICTIONARY
  5
3BE
330
36
100
AcDbDictionary
280
     1
281
     1
  3
ACAD_XREC_ROUNDTRIP
360
3BF
  0
DICTIONARY
  5
3C6
330
3A
100
AcDbDictionary
280
     1
281
     1
  3
ACAD_XREC_ROUNDTRIP
360
3C7
  0
DICTIONARY
  5
3BA
330
34
100
AcDbDictionary
280
     1
281
     1
  3
ACAD_XREC_ROUNDTRIP
360
3BB
  0
DICTIONARY
  5
3BC
330
35
100
AcDbDictionary
280
     1
281
     1
  3
ACAD_XREC_ROUNDTRIP
360
3BD
  0
DICTIONARY
  5
3C4
330
39
100
AcDbDictionary
280
     1
281
     1
  3
ACAD_XREC_ROUNDTRIP
360
3C5
  0
DICTIONARY
  5
3A8
330
2B
100
AcDbDictionary
280
     1
281
     1
  3
ACAD_XREC_ROUNDTRIP
360
3A9
  0
DICTIONARY
  5
3AA
330
2C
100
AcDbDictionary
280
     1
281
     1
  3
ACAD_XREC_ROUNDTRIP
360
3AB
  0
DICTIONARY
  5
3AC
330
2D
100
AcDbDictionary
280
     1
281
     1
  3
ACAD_XREC_ROUNDTRIP
360
3AD
  0
DICTIONARY
  5
3AE
330
2E
100
AcDbDictionary
280
     1
281
     1
  3
ACAD_XREC_ROUNDTRIP
360
3AF
  0
DICTIONARY
  5
3C2
330
38
100
AcDbDictionary
280
     1
281
     1
  3
ACAD_XREC_ROUNDTRIP
360
3C3
  0
DICTIONARY
  5
3B8
330
33
100
AcDbDictionary
280
     1
281
     1
  3
ACAD_XREC_ROUNDTRIP
360
3B9
  0
DICTIONARY
  5
3C0
330
37
100
AcDbDictionary
280
     1
281
     1
  3
ACAD_XREC_ROUNDTRIP
360
3C1
  0
XRECORD
  5
3CB
102
{ACAD_REACTORS
330
3CA
102
}
330
3CA
100
AcDbXrecord
280
     1
102
MATERIAL
148
0.0
149
0.0
149
0.0
 93
        0
 94
      127
282
     0
 72
     1
 77
     1
171
     1
175
     1
179
     1
273
     0
  0
XRECORD
  5
3C9
102
{ACAD_REACTORS
330
3C8
102
}
330
3C8
100
AcDbXrecord
280
     1
102
MATERIAL
148
0.0
149
0.0
149
0.0
 93
        0
 94
      127
282
     0
 72
     1
 77
     1
171
     1
175
     1
179
     1
273
     0
  0
XRECORD
  5
3CD
102
{ACAD_REACTORS
330
3CC
102
}
330
3CC
100
AcDbXrecord
280
     1
102
MATERIAL
148
0.0
149
0.0
149
0.0
 93
        0
 94
      127
282
     0
 72
     1
 77
     1
171
     1
175
     1
179
     1
273
     0
  0
XRECORD
  5
3B1
102
{ACAD_REACTORS
330
3B0
102
}
330
3B0
100
AcDbXrecord
280
     1
102
RTVSPropertyOp0
 70
     1
102
RTVSPropertyOp1
 70
     1
102
RTVSPropertyOp2
 70
     1
102
RTVSPropertyOp3
 70
     1
102
RTVSPropertyOp4
 70
     1
102
RTVSPropertyOp5
 70
     1
102
RTVSPropertyOp6
 70
     1
102
RTVSPropertyOp7
 70
     1
102
RTVSPropertyOp8
 70
     1
102
RTVSPropertyOp9
 70
     1
102
RTVSPropertyOp10
 70
     1
102
RTVSPropertyOp11
 70
     1
102
RTVSPropertyOp12
 70
     1
102
RTVSPropertyOp13
 70
     1
102
RTVSPropertyOp14
 70
     1
102
RTVSPropertyOp15
 70
     1
102
RTVSPropertyOp16
 70
     1
102
RTVSPropertyOp17
 70
     1
102
RTVSPropertyOp18
 70
     1
102
RTVSPropertyOp19
 70
     1
102
RTVSPropertyOp20
 70
     1
102
RTVSPropertyOp21
 70
     1
102
RTVSPropertyOp22
 70
     1
102
RTVSPropertyOp23
 70
     1
102
RTVSPropertyOp24
 70
     1
102
RTVSPropertyOp25
 70
     1
102
RTVSPropertyOp26
 70
     1
102
RTVSPropertyOp27
 70
     1
  0
XRECORD
  5
3B5
102
{ACAD_REACTORS
330
3B4
102
}
330
3B4
100
AcDbXrecord
280
     1
102
RTVSPropertyOp0
 70
     1
102
RTVSPropertyOp1
 70
     1
102
RTVSPropertyOp2
 70
     1
102
RTVSPropertyOp3
 70
     1
102
RTVSPropertyOp4
 70
     1
102
RTVSPropertyOp5
 70
     1
102
RTVSPropertyOp6
 70
     1
102
RTVSPropertyOp7
 70
     1
102
RTVSPropertyOp8
 70
     1
102
RTVSPropertyOp9
 70
     1
102
RTVSPropertyOp10
 70
     1
102
RTVSPropertyOp11
 70
     1
102
RTVSPropertyOp12
 70
     1
102
RTVSPropertyOp13
 70
     1
102
RTVSPropertyOp14
 70
     1
102
RTVSPropertyOp15
 70
     1
102
RTVSPropertyOp16
 70
     1
102
RTVSPropertyOp17
 70
     1
102
RTVSPropertyOp18
 70
     1
102
RTVSPropertyOp19
 70
     1
102
RTVSPropertyOp20
 70
     1
102
RTVSPropertyOp21
 70
     1
102
RTVSPropertyOp22
 70
     1
102
RTVSPropertyOp23
 70
     1
102
RTVSPropertyOp24
 70
     1
102
RTVSPropertyOp25
 70
     1
102
RTVSPropertyOp26
 70
     1
102
RTVSPropertyOp27
 70
     1
  0
XRECORD
  5
3B3
102
{ACAD_REACTORS
330
3B2
102
}
330
3B2
100
AcDbXrecord
280
     1
102
RTVSPropertyOp0
 70
     1
102
RTVSPropertyOp1
 70
     1
102
RTVSPropertyOp2
 70
     1
102
RTVSPropertyOp3
 70
     1
102
RTVSPropertyOp4
 70
     1
102
RTVSPropertyOp5
 70
     1
102
RTVSPropertyOp6
 70
     1
102
RTVSPropertyOp7
 70
     1
102
RTVSPropertyOp8
 70
     1
102
RTVSPropertyOp9
 70
     1
102
RTVSPropertyOp10
 70
     1
102
RTVSPropertyOp11
 70
     1
102
RTVSPropertyOp12
 70
     1
102
RTVSPropertyOp13
 70
     1
102
RTVSPropertyOp14
 70
     1
102
RTVSPropertyOp15
 70
     1
102
RTVSPropertyOp16
 70
     1
102
RTVSPropertyOp17
 70
     1
102
RTVSPropertyOp18
 70
     1
102
RTVSPropertyOp19
 70
     1
102
RTVSPropertyOp20
 70
     1
102
RTVSPropertyOp21
 70
     1
102
RTVSPropertyOp22
 70
     1
102
RTVSPropertyOp23
 70
     1
102
RTVSPropertyOp24
 70
     1
102
RTVSPropertyOp25
 70
     1
102
RTVSPropertyOp26
 70
     1
102
RTVSPropertyOp27
 70
     1
  0
XRECORD
  5
3B7
102
{ACAD_REACTORS
330
3B6
102
}
330
3B6
100
AcDbXrecord
280
     1
102
RTVSPropertyOp0
 70
     1
102
RTVSPropertyOp1
 70
     1
102
RTVSPropertyOp2
 70
     1
102
RTVSPropertyOp3
 70
     1
102
RTVSPropertyOp4
 70
     1
102
RTVSPropertyOp5
 70
     1
102
RTVSPropertyOp6
 70
     1
102
RTVSPropertyOp7
 70
     1
102
RTVSPropertyOp8
 70
     1
102
RTVSPropertyOp9
 70
     1
102
RTVSPropertyOp10
 70
     1
102
RTVSPropertyOp11
 70
     1
102
RTVSPropertyOp12
 70
     1
102
RTVSPropertyOp13
 70
     1
102
RTVSPropertyOp14
 70
     1
102
RTVSPropertyOp15
 70
     1
102
RTVSPropertyOp16
 70
     1
102
RTVSPropertyOp17
 70
     1
102
RTVSPropertyOp18
 70
     1
102
RTVSPropertyOp19
 70
     1
102
RTVSPropertyOp20
 70
     1
102
RTVSPropertyOp21
 70
     1
102
RTVSPropertyOp22
 70
     1
102
RTVSPropertyOp23
 70
     1
102
RTVSPropertyOp24
 70
     1
102
RTVSPropertyOp25
 70
     1
102
RTVSPropertyOp26
 70
     1
102
RTVSPropertyOp27
 70
     1
  0
XRECORD
  5
3BF
102
{ACAD_REACTORS
330
3BE
102
}
330
3BE
100
AcDbXrecord
280
     1
102
RTVSPropertyOp0
 70
     1
102
RTVSPropertyOp1
 70
     1
102
RTVSPropertyOp2
 70
     1
102
RTVSPropertyOp3
 70
     1
102
RTVSPropertyOp4
 70
     1
102
RTVSPropertyOp5
 70
     1
102
RTVSPropertyOp6
 70
     1
102
RTVSPropertyOp7
 70
     1
102
RTVSPropertyOp8
 70
     1
102
RTVSPropertyOp9
 70
     1
102
RTVSPropertyOp10
 70
     1
102
RTVSPropertyOp11
 70
     1
102
RTVSPropertyOp12
 70
     1
102
RTVSPropertyOp13
 70
     1
102
RTVSPropertyOp14
 70
     1
102
RTVSPropertyOp15
 70
     1
102
RTVSPropertyOp16
 70
     1
102
RTVSPropertyOp17
 70
     1
102
RTVSPropertyOp18
 70
     1
102
RTVSPropertyOp19
 70
     1
102
RTVSPropertyOp20
 70
     1
102
RTVSPropertyOp21
 70
     1
102
RTVSPropertyOp22
 70
     1
102
RTVSPropertyOp23
 70
     1
102
RTVSPropertyOp24
 70
     1
102
RTVSPropertyOp25
 70
     1
102
RTVSPropertyOp26
 70
     1
102
RTVSPropertyOp27
 70
     1
  0
XRECORD
  5
3C7
102
{ACAD_REACTORS
330
3C6
102
}
330
3C6
100
AcDbXrecord
280
     1
102
RTVSPropertyOp0
 70
     1
102
RTVSPropertyOp1
 70
     1
102
RTVSPropertyOp2
 70
     1
102
RTVSPropertyOp3
 70
     1
102
RTVSPropertyOp4
 70
     1
102
RTVSPropertyOp5
 70
     1
102
RTVSPropertyOp6
 70
     1
102
RTVSPropertyOp7
 70
     1
102
RTVSPropertyOp8
 70
     1
102
RTVSPropertyOp9
 70
     1
102
RTVSPropertyOp10
 70
     1
102
RTVSPropertyOp11
 70
     1
102
RTVSPropertyOp12
 70
     1
102
RTVSPropertyOp13
 70
     1
102
RTVSPropertyOp14
 70
     1
102
RTVSPropertyOp15
 70
     1
102
RTVSPropertyOp16
 70
     1
102
RTVSPropertyOp17
 70
     1
102
RTVSPropertyOp18
 70
     1
102
RTVSPropertyOp19
 70
     1
102
RTVSPropertyOp20
 70
     1
102
RTVSPropertyOp21
 70
     1
102
RTVSPropertyOp22
 70
     1
102
RTVSPropertyOp23
 70
     1
102
RTVSPropertyOp24
 70
     1
102
RTVSPropertyOp25
 70
     1
102
RTVSPropertyOp26
 70
     1
102
RTVSPropertyOp27
 70
     1
  0
XRECORD
  5
3BB
102
{ACAD_REACTORS
330
3BA
102
}
330
3BA
100
AcDbXrecord
280
     1
102
RTVSPropertyOp0
 70
     1
102
RTVSPropertyOp1
 70
     1
102
RTVSPropertyOp2
 70
     1
102
RTVSPropertyOp3
 70
     1
102
RTVSPropertyOp4
 70
     1
102
RTVSPropertyOp5
 70
     1
102
RTVSPropertyOp6
 70
     1
102
RTVSPropertyOp7
 70
     1
102
RTVSPropertyOp8
 70
     1
102
RTVSPropertyOp9
 70
     1
102
RTVSPropertyOp10
 70
     1
102
RTVSPropertyOp11
 70
     1
102
RTVSPropertyOp12
 70
     1
102
RTVSPropertyOp13
 70
     1
102
RTVSPropertyOp14
 70
     1
102
RTVSPropertyOp15
 70
     1
102
RTVSPropertyOp16
 70
     1
102
RTVSPropertyOp17
 70
     1
102
RTVSPropertyOp18
 70
     1
102
RTVSPropertyOp19
 70
     1
102
RTVSPropertyOp20
 70
     1
102
RTVSPropertyOp21
 70
     1
102
RTVSPropertyOp22
 70
     1
102
RTVSPropertyOp23
 70
     1
102
RTVSPropertyOp24
 70
     1
102
RTVSPropertyOp25
 70
     1
102
RTVSPropertyOp26
 70
     1
102
RTVSPropertyOp27
 70
     1
  0
XRECORD
  5
3BD
102
{ACAD_REACTORS
330
3BC
102
}
330
3BC
100
AcDbXrecord
280
     1
102
RTVSPropertyOp0
 70
     1
102
RTVSPropertyOp1
 70
     1
102
RTVSPropertyOp2
 70
     1
102
RTVSPropertyOp3
 70
     1
102
RTVSPropertyOp4
 70
     1
102
RTVSPropertyOp5
 70
     1
102
RTVSPropertyOp6
 70
     1
102
RTVSPropertyOp7
 70
     1
102
RTVSPropertyOp8
 70
     1
102
RTVSPropertyOp9
 70
     1
102
RTVSPropertyOp10
 70
     1
102
RTVSPropertyOp11
 70
     1
102
RTVSPropertyOp12
 70
     1
102
RTVSPropertyOp13
 70
     1
102
RTVSPropertyOp14
 70
     1
102
RTVSPropertyOp15
 70
     1
102
RTVSPropertyOp16
 70
     1
102
RTVSPropertyOp17
 70
     1
102
RTVSPropertyOp18
 70
     1
102
RTVSPropertyOp19
 70
     1
102
RTVSPropertyOp20
 70
     1
102
RTVSPropertyOp21
 70
     1
102
RTVSPropertyOp22
 70
     1
102
RTVSPropertyOp23
 70
     1
102
RTVSPropertyOp24
 70
     1
102
RTVSPropertyOp25
 70
     1
102
RTVSPropertyOp26
 70
     1
102
RTVSPropertyOp27
 70
     1
  0
XRECORD
  5
3C5
102
{ACAD_REACTORS
330
3C4
102
}
330
3C4
100
AcDbXrecord
280
     1
102
RTVSPropertyOp0
 70
     1
102
RTVSPropertyOp1
 70
     1
102
RTVSPropertyOp2
 70
     1
102
RTVSPropertyOp3
 70
     1
102
RTVSPropertyOp4
 70
     1
102
RTVSPropertyOp5
 70
     1
102
RTVSPropertyOp6
 70
     1
102
RTVSPropertyOp7
 70
     1
102
RTVSPropertyOp8
 70
     1
102
RTVSPropertyOp9
 70
     1
102
RTVSPropertyOp10
 70
     1
102
RTVSPropertyOp11
 70
     1
102
RTVSPropertyOp12
 70
     1
102
RTVSPropertyOp13
 70
     1
102
RTVSPropertyOp14
 70
     1
102
RTVSPropertyOp15
 70
     1
102
RTVSPropertyOp16
 70
     1
102
RTVSPropertyOp17
 70
     1
102
RTVSPropertyOp18
 70
     1
102
RTVSPropertyOp19
 70
     1
102
RTVSPropertyOp20
 70
     1
102
RTVSPropertyOp21
 70
     1
102
RTVSPropertyOp22
 70
     1
102
RTVSPropertyOp23
 70
     1
102
RTVSPropertyOp24
 70
     1
102
RTVSPropertyOp25
 70
     1
102
RTVSPropertyOp26
 70
     1
102
RTVSPropertyOp27
 70
     1
  0
XRECORD
  5
3A9
102
{ACAD_REACTORS
330
3A8
102
}
330
3A8
100
AcDbXrecord
280
     1
102
RTVSPropertyOp0
 70
     1
102
RTVSPropertyOp1
 70
     1
102
RTVSPropertyOp2
 70
     1
102
RTVSPropertyOp3
 70
     1
102
RTVSPropertyOp4
 70
     1
102
RTVSPropertyOp5
 70
     1
102
RTVSPropertyOp6
 70
     1
102
RTVSPropertyOp7
 70
     1
102
RTVSPropertyOp8
 70
     1
102
RTVSPropertyOp9
 70
     1
102
RTVSPropertyOp10
 70
     1
102
RTVSPropertyOp11
 70
     1
102
RTVSPropertyOp12
 70
     1
102
RTVSPropertyOp13
 70
     1
102
RTVSPropertyOp14
 70
     1
102
RTVSPropertyOp15
 70
     1
102
RTVSPropertyOp16
 70
     1
102
RTVSPropertyOp17
 70
     1
102
RTVSPropertyOp18
 70
     1
102
RTVSPropertyOp19
 70
     1
102
RTVSPropertyOp20
 70
     1
102
RTVSPropertyOp21
 70
     1
102
RTVSPropertyOp22
 70
     1
102
RTVSPropertyOp23
 70
     1
102
RTVSPropertyOp24
 70
     1
102
RTVSPropertyOp25
 70
     1
102
RTVSPropertyOp26
 70
     1
102
RTVSPropertyOp27
 70
     1
  0
XRECORD
  5
3AB
102
{ACAD_REACTORS
330
3AA
102
}
330
3AA
100
AcDbXrecord
280
     1
102
RTVSPropertyOp0
 70
     1
102
RTVSPropertyOp1
 70
     1
102
RTVSPropertyOp2
 70
     1
102
RTVSPropertyOp3
 70
     1
102
RTVSPropertyOp4
 70
     1
102
RTVSPropertyOp5
 70
     1
102
RTVSPropertyOp6
 70
     1
102
RTVSPropertyOp7
 70
     1
102
RTVSPropertyOp8
 70
     1
102
RTVSPropertyOp9
 70
     1
102
RTVSPropertyOp10
 70
     1
102
RTVSPropertyOp11
 70
     1
102
RTVSPropertyOp12
 70
     1
102
RTVSPropertyOp13
 70
     1
102
RTVSPropertyOp14
 70
     1
102
RTVSPropertyOp15
 70
     1
102
RTVSPropertyOp16
 70
     1
102
RTVSPropertyOp17
 70
     1
102
RTVSPropertyOp18
 70
     1
102
RTVSPropertyOp19
 70
     1
102
RTVSPropertyOp20
 70
     1
102
RTVSPropertyOp21
 70
     1
102
RTVSPropertyOp22
 70
     1
102
RTVSPropertyOp23
 70
     1
102
RTVSPropertyOp24
 70
     1
102
RTVSPropertyOp25
 70
     1
102
RTVSPropertyOp26
 70
     1
102
RTVSPropertyOp27
 70
     1
  0
XRECORD
  5
3AD
102
{ACAD_REACTORS
330
3AC
102
}
330
3AC
100
AcDbXrecord
280
     1
102
RTVSPropertyOp0
 70
     1
102
RTVSPropertyOp1
 70
     1
102
RTVSPropertyOp2
 70
     1
102
RTVSPropertyOp3
 70
     1
102
RTVSPropertyOp4
 70
     1
102
RTVSPropertyOp5
 70
     1
102
RTVSPropertyOp6
 70
     1
102
RTVSPropertyOp7
 70
     1
102
RTVSPropertyOp8
 70
     1
102
RTVSPropertyOp9
 70
     1
102
RTVSPropertyOp10
 70
     1
102
RTVSPropertyOp11
 70
     1
102
RTVSPropertyOp12
 70
     1
102
RTVSPropertyOp13
 70
     1
102
RTVSPropertyOp14
 70
     1
102
RTVSPropertyOp15
 70
     1
102
RTVSPropertyOp16
 70
     1
102
RTVSPropertyOp17
 70
     1
102
RTVSPropertyOp18
 70
     1
102
RTVSPropertyOp19
 70
     1
102
RTVSPropertyOp20
 70
     1
102
RTVSPropertyOp21
 70
     1
102
RTVSPropertyOp22
 70
     1
102
RTVSPropertyOp23
 70
     1
102
RTVSPropertyOp24
 70
     1
102
RTVSPropertyOp25
 70
     1
102
RTVSPropertyOp26
 70
     1
102
RTVSPropertyOp27
 70
     1
  0
XRECORD
  5
3AF
102
{ACAD_REACTORS
330
3AE
102
}
330
3AE
100
AcDbXrecord
280
     1
102
RTVSPropertyOp0
 70
     1
102
RTVSPropertyOp1
 70
     1
102
RTVSPropertyOp2
 70
     1
102
RTVSPropertyOp3
 70
     1
102
RTVSPropertyOp4
 70
     1
102
RTVSPropertyOp5
 70
     1
102
RTVSPropertyOp6
 70
     1
102
RTVSPropertyOp7
 70
     1
102
RTVSPropertyOp8
 70
     1
102
RTVSPropertyOp9
 70
     1
102
RTVSPropertyOp10
 70
     1
102
RTVSPropertyOp11
 70
     1
102
RTVSPropertyOp12
 70
     1
102
RTVSPropertyOp13
 70
     1
102
RTVSPropertyOp14
 70
     1
102
RTVSPropertyOp15
 70
     1
102
RTVSPropertyOp16
 70
     1
102
RTVSPropertyOp17
 70
     1
102
RTVSPropertyOp18
 70
     1
102
RTVSPropertyOp19
 70
     1
102
RTVSPropertyOp20
 70
     1
102
RTVSPropertyOp21
 70
     1
102
RTVSPropertyOp22
 70
     1
102
RTVSPropertyOp23
 70
     1
102
RTVSPropertyOp24
 70
     1
102
RTVSPropertyOp25
 70
     1
102
RTVSPropertyOp26
 70
     1
102
RTVSPropertyOp27
 70
     1
  0
XRECORD
  5
3C3
102
{ACAD_REACTORS
330
3C2
102
}
330
3C2
100
AcDbXrecord
280
     1
102
RTVSPropertyOp0
 70
     1
102
RTVSPropertyOp1
 70
     1
102
RTVSPropertyOp2
 70
     1
102
RTVSPropertyOp3
 70
     1
102
RTVSPropertyOp4
 70
     1
102
RTVSPropertyOp5
 70
     1
102
RTVSPropertyOp6
 70
     1
102
RTVSPropertyOp7
 70
     1
102
RTVSPropertyOp8
 70
     1
102
RTVSPropertyOp9
 70
     1
102
RTVSPropertyOp10
 70
     1
102
RTVSPropertyOp11
 70
     1
102
RTVSPropertyOp12
 70
     1
102
RTVSPropertyOp13
 70
     1
102
RTVSPropertyOp14
 70
     1
102
RTVSPropertyOp15
 70
     1
102
RTVSPropertyOp16
 70
     1
102
RTVSPropertyOp17
 70
     1
102
RTVSPropertyOp18
 70
     1
102
RTVSPropertyOp19
 70
     1
102
RTVSPropertyOp20
 70
     1
102
RTVSPropertyOp21
 70
     1
102
RTVSPropertyOp22
 70
     1
102
RTVSPropertyOp23
 70
     1
102
RTVSPropertyOp24
 70
     1
102
RTVSPropertyOp25
 70
     1
102
RTVSPropertyOp26
 70
     1
102
RTVSPropertyOp27
 70
     1
  0
XRECORD
  5
3B9
102
{ACAD_REACTORS
330
3B8
102
}
330
3B8
100
AcDbXrecord
280
     1
102
RTVSPropertyOp0
 70
     1
102
RTVSPropertyOp1
 70
     1
102
RTVSPropertyOp2
 70
     1
102
RTVSPropertyOp3
 70
     1
102
RTVSPropertyOp4
 70
     1
102
RTVSPropertyOp5
 70
     1
102
RTVSPropertyOp6
 70
     1
102
RTVSPropertyOp7
 70
     1
102
RTVSPropertyOp8
 70
     1
102
RTVSPropertyOp9
 70
     1
102
RTVSPropertyOp10
 70
     1
102
RTVSPropertyOp11
 70
     1
102
RTVSPropertyOp12
 70
     1
102
RTVSPropertyOp13
 70
     1
102
RTVSPropertyOp14
 70
     1
102
RTVSPropertyOp15
 70
     1
102
RTVSPropertyOp16
 70
     1
102
RTVSPropertyOp17
 70
     1
102
RTVSPropertyOp18
 70
     1
102
RTVSPropertyOp19
 70
     1
102
RTVSPropertyOp20
 70
     1
102
RTVSPropertyOp21
 70
     1
102
RTVSPropertyOp22
 70
     1
102
RTVSPropertyOp23
 70
     1
102
RTVSPropertyOp24
 70
     1
102
RTVSPropertyOp25
 70
     1
102
RTVSPropertyOp26
 70
     1
102
RTVSPropertyOp27
 70
     1
  0
XRECORD
  5
3C1
102
{ACAD_REACTORS
330
3C0
102
}
330
3C0
100
AcDbXrecord
280
     1
102
RTVSPropertyOp0
 70
     1
102
RTVSPropertyOp1
 70
     1
102
RTVSPropertyOp2
 70
     1
102
RTVSPropertyOp3
 70
     1
102
RTVSPropertyOp4
 70
     1
102
RTVSPropertyOp5
 70
     1
102
RTVSPropertyOp6
 70
     1
102
RTVSPropertyOp7
 70
     1
102
RTVSPropertyOp8
 70
     1
102
RTVSPropertyOp9
 70
     1
102
RTVSPropertyOp10
 70
     1
102
RTVSPropertyOp11
 70
     1
102
RTVSPropertyOp12
 70
     1
102
RTVSPropertyOp13
 70
     1
102
RTVSPropertyOp14
 70
     1
102
RTVSPropertyOp15
 70
     1
102
RTVSPropertyOp16
 70
     1
102
RTVSPropertyOp17
 70
     1
102
RTVSPropertyOp18
 70
     1
102
RTVSPropertyOp19
 70
     1
102
RTVSPropertyOp20
 70
     1
102
RTVSPropertyOp21
 70
     1
102
RTVSPropertyOp22
 70
     1
102
RTVSPropertyOp23
 70
     1
102
RTVSPropertyOp24
 70
     1
102
RTVSPropertyOp25
 70
     1
102
RTVSPropertyOp26
 70
     1
102
RTVSPropertyOp27
 70
     1
  0
ENDSEC
  0
EOF
